» » »

Kaiser Chiefs, Thank You Very Much Tabs (ver.1)

Artists:  A B C D E F G H I J K L M N O P Q R S T U V W X Y Z # 

Thank You Very Much Tabs (ver.1)

Kaiser Chiefs Tabs
 Rating:
4/5 (4 votes)
Thank You Very Much lessons Tabs too difficult? Try these video lessons and learn fast
                By
Kaiser Chiefs



Standard Tuning

Key

~ = Let It Ring
x = Mute

Intro

E|----------------|
B|----------------|
G|--5~--8-----8~--|
D|--5~--8--5--8~--|
A|--3~--6--5--6~--|
E|---------3------|

E|---------------------------------------|
B|---------------------------------------|
G|--55555555--888------8888888888888888--|
D|--55555555--888--55--8888888888888888--|    x2
A|--33333333--666--55--6666666666666666--|
E|-----------------33--------------------|

Verse

E|---------------|
B|---------------|
G|---------------|
D|---------------|    x2
A|--3--6-----6~--|
E|--------3------|


Pre-Chorus 

E|-------------------------|
B|-------------------------|
G|--88-99-10--x-x-x-x-x-x--|
D|--88-99-10--x-x-x-x-x-x--|        x2
A|--66-77-8---x-x-x-x-x-x--|
E|-------------------------|

E|----------------------------------|
B|----------------------------------|
G|--88--99--555555--888888----------|
D|--88--99--555555--888888--555555--|
A|--66--77--333333--666666--555555--|
E|--------------------------333333--|


Chorus

E|------------------------------------------|
B|------------------------------------------|
G|------------5---------7---------8---------|
D|--8---------5--(x16)--7--(1x6)--8--(x16)--|
A|--8--(x16)--3---------5---------6---------|
E|--6---------------------------------------|


Bridge

E|------------------|
B|------------------|
G|--55--55--88--66--|
D|--55--55--88--66--|    x2
A|--33--33--66--44--|
E|------------------|

E|----------------------------------------|
B|----------------------------------------|
G|--5555555555555555--88888888--66666666--|
D|--5555555555555555--88888888--66666666--|    x2
A|--3333333333333333--66666666--44444444--|
E|----------------------------------------|

Structure

Intro
Verse 
Pre-Chorus
Chorus
Bridge
Verse
Pre-Chorus
Chorus
Bridge (No Vocals)
Bridge

Last Chord Is A C
            
Submit corrections

comments powered by Disqus
↑ Back to top | Kaiser Chiefs Tabs for Thank You Very Much. Lyrics for acoustic guitar and electric guitar. Tablatures and chords are parodies/interpretations of the original songs. You may use it for private study, scholarship, research or language learning purposes only