» » »

Kaiser Chiefs, Retirement Tabs (ver.1)

Artists:  A B C D E F G H I J K L M N O P Q R S T U V W X Y Z # 

Retirement Tabs (ver.1)

Kaiser Chiefs Tabs
 Rating:
4/5 (4 votes)
Retirement lessons Tabs too difficult? Try these video lessons and learn fast
                e-------------------------------------------------------------|
B-------------------------------------------------------------|
G-------------------------------------------------------------|
D-------------------------------------------------------------|
A--9--9--9--9--4--4--8--8--5--5--5--5--2--2--5--5--9--9--9--9-|
E-------------------------------------------------------------|

then just repeat that thru the verse and the chorus (a pretty repetitive song)

you could also play the D string in the chorus with these chords to be a bit more interesting

e--------------------------------------------------------------|
B--------------------------------------------------------------|
G--------------------------------------------------------------|
D--11-11-11-11-6--6--10-10-7--7--7--7--4--4--7--7--11-11-11-11-|
A--9--9--9--9--4--4--8--8--5--5--5--5--2--2--5--5--9--9--9--9--|
E--------------------------------------------------------------|

then theres a bit at the end of the chorus

e-------------------------|
B-------------------------|
G-------------------------|
D--11-6--8--4--11-6--8--4-|
A--9--4--7--2--9--4--7--2-|
E-------------------------|

that pretty much it
            
Submit corrections

comments powered by Disqus
↑ Back to top | Kaiser Chiefs Tabs for Retirement. Lyrics for acoustic guitar and electric guitar. Tablatures and chords are parodies/interpretations of the original songs. You may use it for private study, scholarship, research or language learning purposes only