» » »

Kaiser Chiefs, Never Miss A Beat Bass tabs (ver.3)

Artists:  A B C D E F G H I J K L M N O P Q R S T U V W X Y Z # 

Never Miss A Beat Bass tabs (ver.3)

Kaiser Chiefs Tabs
Rating:
0/5 (0 votes)
Never Miss A Beat lessons Tabs too difficult? Try these video lessons and learn fast
                i saw the tab by Mafyoo and noticed there a few mistakes/things he didn't pick up.
it was a great tab either way so i'm just going to add onto his.

So i don't claim to have written the whole tab. Just thought i'd say that straight up




Band: Kaiser Cheifs





Intro and Breakdown

G|-12-12-12-12-12-12-12-12---------------12-------|
D|------------------------------------------------|
A|----------------------------10-10---10----10----|
E|------------------------------------------------|  x4

Sometimes during the breakdowns he plays this:

G|-12-12-12-12-12-12-12-12----------------------------|
D|-----------------------------------12-10------------|
A|----------------------------10-10--------13-10------|
E|----------------------------------------------------|

Verse

G|------------------------|
D|------------------------|
A|------------------------|
E|-3333333333333333333333-|  for ages

then on the 'It's cool' bit change to


G|---------------|
D|---------------|
A|-5~-10~-8~-10~-|
E|---------------|  (Not 100% sure that's correct)

Then on the 'Take A Look, Take A Look, Take A Look at me bit'

G|------------------|
D|------------------|
A|------------------|
E|-3333333333333333-| 


Chorus


G|-----------------------------------|
D|-----------------------------------|
A|-888888888888888884444444466666666-|
E|-----------------------------------| for a few times then


G|-------------------|
D|-------------------|
A|-88888888888888888-|
E|-------------------|


thanks again to mafyoo for doing most of this tab =]
            
Submit corrections

comments powered by Disqus
↑ Back to top | Kaiser Chiefs Bass for Never Miss A Beat. Lyrics for acoustic guitar and electric guitar. Tablatures and chords are parodies/interpretations of the original songs. You may use it for private study, scholarship, research or language learning purposes only