» » »

Modern Way Bass tabs (ver.4)

Artists:  A B C D E F G H I J K L M N O P Q R S T U V W X Y Z # 

Modern Way Bass tabs (ver.4)

Kaiser Chiefs
Rating:
0/5 (0 votes)

Hard to play? Try these video lessons and learn fast.
                G--------------------------------------------------------------------|
D-----6------9------------6---------6------9-------------6-----------|
A---4------7-------7----4---------4------7-------7-----4-------------|
E----------------5-----------------------------5---------------------|
 pick up the number of times this riff is played

pre corus

G-------------------------------------------------------------------|
D-------------------------------------------------------------------|
A-2-2-2-2-2-2-2-2-2-2-2-2-0-0-0-0-0-0-0-0-0-0-0-0 X2----------------|
E-------------------------------------------------------------------|
 PICK UP THE RYTHYM THINK I GOT THE RIGHT COUNT!

CORUS

G--------------------------------------------------------------------|
D--------------------------------------------------------------------|
A-0-00-0-02--44-4-4-42--00-0-0-02--44-4-4-42--00-0-0-02-44-4-4-42-00-|
E--------------------------------------------------------------------|

OUTRO BACK TO MAIN VERSE

G----------------------------------------------------------------------|
D----------------------------------------------------------------------|
A--0-0-0-0-0-0-0-0-0-0-0-0-0-0-0-0-------------------------------------|
E----------------------------------------------------------------------|

LAST VERSE IS PLAYED AFTER 2 CORUSES

G-------------------------------------------------------------|
D----6------9-------------6---------6------9-----------6------|    X2
A--4------7-------7----4----------4------7-------7---4--------|
E --------------5----------------------------5----------------|
            
Hard to play? Try these video lessons and learn fast. | Correct




comments powered by Disqus
↑ Back to top | Tablatures and chords are parodies/interpretations of the original songs. You may use it for private study, scholarship, research or language learning purposes only