>
 >
Love's Not A Competition (But I'm Winning) 1

Love's Not A Competition (But I'm Winning) 1 Guitar Tabs

Kaiser Chiefs - Love's Not A Competition (But I'm Winning) 1 chords, tabs, tablatures, lyrics

Guitar lessons | Add/correct | Request | Top 50 tabs Artists:  A B C D E F G H I J K L M N O P Q R S T U V W X Y Z 0-9

Love's Not A Competition (But I'm Winning) 1 Guitar Tabs – Kaiser Chiefs

CD, Sheet music, Poster

Do you like Love's Not A Competition (But I'm Winning) 1? Share with your friends now
ChordsChords v2Chords v3TabsTabs v2
-------------------------------------------------------------------------------
	     LOVE'S NOT A COMPETITION (BUT I'M WINNING) - Kaiser Chiefs
-------------------------------------------------------------------------------


Tuning: Standard (EADGBe)


Riff:

e|--15--15-------------------------------------------------------------------|
B|----------13--13-----------------------------------------------------------|
G|------------------15--15---------------------------------------------------|
D|--------------------------12--12--12-12-12---------------------------------|
A|---------------------------------------------------------------------------|
E|---------------------------------------------------------------------------|

e|--15--15-------------------------------------------------------------------|
B|----------13--13----------13--13--13-13-13---------------------------------|
G|------------------15--15---------------------------------------------------|
D|---------------------------------------------------------------------------|
A|---------------------------------------------------------------------------|
E|---------------------------------------------------------------------------|


[Riff x 2]


Verse 1:

C	Gm		  Bb	     F	     
I won't be the one to disappoint you any more
    C		Gm
And I know I've said all this
		Bb	 F
And that you've heard it all before


    C	     Gm			       Bb	F
The trick is getting you to think that all this was your idea
    C	     Gm
And this was everything
	    Bb	   F 
You've ever wanted out of here



Chorus:

Cm			  	  Gm
Love's not a competition, but I'm winning



Verse 2:

C	Gm		  Bb	     F
I'm not sure what's truly altruistic any more
C	   Gm			
When every good thing that I do
   Bb		      F
Is listed, and you're keeping score



Chorus:

Cm			  	  Gm
Love's not a competition, but I'm winning
Cm				  Gm
Love's not a competition, but I'm winning
	   C			      Gm
At least I thought I was, but there's no way of knowing
	   C			      Gm
At least I thought I was, but there's no way of knowing



    Gm				 Bb		     F
You know what's like when you're new to the game but I'm not



[Riff x2]


(Continue to end; Guitar 1 plays the riff, Guitar 2 plays the chords.)


C	Gm		  Bb	     F	     
I won't be the one to disappoint you
C	Gm		  Bb	     F	     
I won't be the one to disappoint you any more
C	Gm		  Bb	     F	     
I won't be the one to disappoint you
C	Gm		  Bb	     F	     
I won't be the one to disappoint you any more



| /  slide up
| \  slide down
| h  hammer-on
| p  pull-off
| ~  vibrato
| +  harmonic
| x  Mute note
===============================================================================





Comments


Popular Kaiser Chiefs tabs & chords
Everything Is Average Nowadays 1 Bass Tabs
If You Will Have Me Chords
Spanish Metal Chords
Born To Be A Dancer 1 Tabs
Everything Is Average Nowadays Tabs
Evrey Day I Love You Less And Less Tabs
Learnt My Lesson Well Intro Tabs
Modern Way 1 Tabs
Thank You Very Much Tabs
Heat Dies Down Ukulele


Song lyrics



↑ Back to top | Tablatures and chords are parodies/interpretations of the original songs. You may use it for private study, scholarship, research or language learning purposes only
© 2014 AZChords.com Contact us | Privacy policy | DMCA | Add/correct tabs | Request tabs | Top 50 tabs