» » »

I Predict A Riot Bass tabs (ver.5)

Artists:  A B C D E F G H I J K L M N O P Q R S T U V W X Y Z # 

I Predict A Riot Bass tabs (ver.5)

Kaiser Chiefs
Rating:
0/5 (0 votes)

Hard to play? Try these video lessons and learn fast.
                Kaiser Chiefs
I Predict a Riot
Bass Tabs by sxejoo



G|----------------------------------------------------------------------------|
D|----------------------------------------------------------------------------|
A|-3-3-3-3-6-6-5-5------------------------------------------------------------|
E|----------------------------------------------------------------------------|(x2)

G|----------------------------------------------------------------------------|
D|----------------------------------------------------------------------------|
A|-11---11-11-11-11-11-11-10---10-10-10-10-10-10-8---8-8-8-8-8-8---6-6-5-5----|
E|----------------------------------------------------------------------------|

G|----------------------------------------------------------------------------|
D|----------------------------------------------------------------------------|
A|-3(x8)-6-6-6-6-5-5-5-5------------------------------------------------------|
E|----------------------------------------------------------------------------|(x2)

G|----------------------------------------------------------------------------|
D|----------------------------------------------------------------------------|
A|-11-11-11-11-11-11-11-11-10-10-10-10-10-10-10-10-8-8-8-8-8-8-8-8-6(x4)-5(x4)|
E|----------------------------------------------------------------------------|

G|-----5/8--8/10--10-8-7—5/12-10-8-7-5-8-8/10-10-10---------------------------|
D|----------------------------------------------------------------------------|
A|-3------------------------------------------------8\------------------------|
E|----------------------------------------------------------------------------|

G|----------------------------------------------------------------------------|
D|----------------------------------------------------------------------------|
A|-3---0-3-3---0-3-3-0-3-3-5-6---0-6-6-6-5-6-8-8-6-8---8-6-5------------------|
E|----------------------------------------------------------------------------|(x2)

G|----------------------------------------------------------------------------|
D|---------------------------------3-------3----------------------------------|
A|-3---2---1-----1-2-3---2---1-------3-------3--------------------------------|
E|-------------1-----------------1-----1-1------------------------------------|(x2)

G|--------------------------------5-6-8---------------------------------------|
D|---6----6--6----------6----6--6---------------------------------------------|
A|-----6-------4--4-4-----6---------------------------------------------------|
E|-4------------------4-------------------------------------------------------|(x2)

G|-----5/8--8/10--10-8-7—5/12-10-8-7-5-8-8/10-10-10---------------------------|
D|----------------------------------------------------------------------------|
A|-3------------------------------------------------8\------------------------|
E|----------------------------------------------------------------------------|

G|----------------------------------------------------------------------------|
D|----------------------------------------------------------------------------|
A|-3---0-3-3---0-3-3-0-3-3-5-6---0-6-6-6-5-6-8-8-6-8---8-6-5------------------|
E|----------------------------------------------------------------------------|(x2)

G|----------------------------------------------------------------------------|
D|---------------------------------3-------3----------------------------------|
A|-3---2---1-----1-2-3---2---1-------3-------3--------------------------------|
E|-------------1-----------------1-----1-1------------------------------------|(x2)

G|--------------------------------5-6-8---------------------------------------|
D|---6----6--6----------6----6--6---------------------------------------------|
A|-----6-------4--4-4-----6---------------------------------------------------|
E|-4------------------4-------------------------------------------------------|(x2)



G|-------------13-----------13--------13----------13--------------------------|
D|----------------13-----------13--------13----------13-----------------------|
A|-5-3-1---11--------11-11---------11-------11-11-----------------------------|
E|----------------------------------------------------------------------------|

G|----------------------------------------------------------------------------|
D|----------------------------------------------------------------------------|
A|-3(x8)-6-6-6-6-5-5-5-5------------------------------------------------------|
E|----------------------------------------------------------------------------|(x2)

G|----------------------------------------------------------------------------|
D|----------------------------------------------------------------------------|
A|-11-11-11-11-11-11-11-11-10-10-10-10-10-10-10-10-8-8-8-8-8-8-8-8-6(x4)-5(x4)|
E|----------------------------------------------------------------------------|

G|----------------------------------------------------------------------------|
D|----------------------------------------------------------------------------|
A|-3(x8)-6-6-6-6-5-5-5-5------------------------------------------------------|
E|----------------------------------------------------------------------------|(x2)

G|----------------------------------------------------------------------------|
D|----------------------------------------------------------------------------|
A|-11-11-11-11-11-11-11-11-10-10-10-10-10-10-10-10-8-8-8-8-8-8-8-8-6(x4)-5(x4)|
E|----------------------------------------------------------------------------|

G|-----5/8--8/10--10-8-7—5/12-10-8-7-5-8-8/10-10-10---------------------------|
D|----------------------------------------------------------------------------|
A|-3------------------------------------------------8\------------------------|
E|----------------------------------------------------------------------------|

G|----------------------------------------------------------------------------|
D|----------------------------------------------------------------------------|
A|-3---2---1-----1-2-3---2---1------------------------------------------------|
E|-------------1--------------------------------------------------------------|

G|----------------------------------------------------------------------------|
D|----3--------3--------------------------------------------------------------|
A|------3--------3------------------------------------------------------------|
E|-1------1-1-----------------------------------------------------------------|(x4)

G|--------------------------------5-6-8---------------------------------------|
D|---6----6--6----------6----6--6---------------------------------------------|
A|-----6-------4--4-4-----6---------------------------------------------------|
E|-4------------------4-------------------------------------------------------|(x2)

G|----------------------------------------------------------------------------|
D|----------------------------------------------------------------------------|
A|-5-3-1/11-------------------------------------------------------------------|
E|----------------------------------------------------------------------------|

G|----------------------------------------------------------------------------|
D|----------------------------------------------------------------------------|
A|-------1---1-3---4---4-3-1--------------------------------------------------|
E|-4---4----------------------------------------------------------------------|(x4)

G|----------------------------------------------------------------------------|
D|----------------------------------------------------------------------------|
A|----------------------------------------------------------------------------|
E|-4--------------------------------------------------------------------------|
            
Hard to play? Try these video lessons and learn fast. | Correct




comments powered by Disqus
↑ Back to top | Tablatures and chords are parodies/interpretations of the original songs. You may use it for private study, scholarship, research or language learning purposes only