» » »

Kaiser Chiefs, Highroyds Bass tabs (ver.1)

Artists:  A B C D E F G H I J K L M N O P Q R S T U V W X Y Z # 

Highroyds Bass tabs (ver.1)

Kaiser Chiefs Tabs
 Rating:
4.2/5 (5 votes)
Highroyds lessons Tabs too difficult? Try these video lessons and learn fast
1
                -------------------------------------------------------------------------------
-------------------------------------------------------------------------------

Tuning: Standard

I hope this will be correct.
I'm not sure about one part of the Verse, but I hope it's right.
If not, comment and correct.
Enjoy. (:


Intro:
G|----------------|
D|----------------| x8
A|----------------|
E|-0-00-3--5-3----|

Verse:
G|/14------12------10------14-12h14p12-------------|
D|------------------------------------1412--12h14--|
A|----------------------------------------15-------|
E|-------------------------------------------------|

G|---------------------------|
D|---------------------------|
A|--12~---------REST---------|
E|---------------------------|

G|---14-----------------12-------------10-------------1414141412-------|
D|---------1214-12--------10-1112----------8-910----------------14-----| 
A|-12---12-----------10--------------8----8---------12-----------------| 
E|---------------------------------------------------------------------|

G||---14-----------------12-------------10--------------|
D||---------1214-12--------10-1112----------8-910-------|
A||-12---12-----------10--------------8----8---------0--|
E||-----------------------------------------------------|
Chorus:
G|-------------------|
D|-------------------|
A|-------------------|
E|-5-5-7-7-8-8-10----|

G|------------------------------------|
D|------------------------------------|
A|------------------------------------|
E|-7-77-777-777\5-55/7-77-777---------|

G|-----------------|
D|-----------------|
A|-----------------|
E|-0-57-0-35-0-----|

G|---------------------------------------|
D|---------------------------------------|
A|---------------------------------------|
E|-7-77-777-777\10-1010/7-77-777---------|


G|-------------------|
D|-------------------|
A|-------------------|
E|-5-5-7-7-8-8-10----|

Pre Verse:
G|----------------|
D|----------------| x8
A|----------------|
E|-0-00-3--5-3----|

Verse:
G|/14------12------10------14-12h14p12-------------|
D|------------------------------------1412--12h14--|
A|----------------------------------------15-------|
E|-------------------------------------------------|

G|---14-----------------12-------------10---------------------|
D|---------1214-12--------10-1112----------8-910--------------|
A|-12---12-----------10--------------8----8----------0--REST--|
E|------------------------------------------------------------|

Chorus:
G|-------------------|
D|-------------------|
A|-------------------|
E|-5-5-7-7-8-8-10----|

G|------------------------------------|
D|------------------------------------|
A|------------------------------------|
E|-7-77-777-777\5-55/7-77-777---------|

G|-----------------|
D|-----------------|
A|-----------------|
E|-0-57-0-35-0-----|

G|---------------------------------------|
D|---------------------------------------|
A|---------------------------------------|
E|-7-77-777-777\10-1010/7-77-777---------|


G|-------------------|
D|-------------------|
A|-------------------|
E|-5-5-7-7-8-8-10----|

G|------------------------------------|
D|------------------------------------|
A|------------------------------------|
E|-7-77-777-777\5-55/7-77-777---------|

G|-----------------|
D|-----------------|
A|-----------------|
E|-0-57-0-35-0-----|

G|---------------------------------------|
D|---------------------------------------|
A|---------------------------------------|
E|-7-77-777-777\10-1010/7-77-777---------|

G|-------------------------|
D|-------------------------|
A|-------------------------|
E|-5-5-7-7-8-8-10-7-77-777-|

G|-------------------------|
D|-------------------------|
A|-------------------------|
E|-5-5-7-7-8-8-10-7-77-777-|

G|----------------|
D|----------------|
A|----------------|
E|-5-5-8-8-7-7-10-|



Pre Verse:
G|--9-99-12--14-12---|
D|-------------------| x8 
A|-------------------|
E|-------------------|

Bridge:
G|-14----14----12----12----10----10----14----14-----|
D|----14----14----12----12----10----10----14----14--|
A|--------------------------------------------------|
E|--------------------------------------------------|

G|-14----14----12----12----10----10-----------------|
D|----14----14----12----12----10----10--------------|
A|--------------------------------------12-\\\------|
E|--------------------------------------------------|

Chorus:
G|------------------------------------|
D|------------------------------------|
A|------------------------------------|
E|-7-77-777-777\5-55/7-77-777---------|

G|-----------------|
D|-----------------|
A|-----------------|
E|-0-57-0-35-0-----|

G|--------------------------------------|
D|--------------------------------------|
A|--------------------------------------|
E|--77-777-777\10-1010/7-77-777---------|


G|-------------------|
D|-------------------|
A|-------------------|
E|-5-5-7-7-8-8-10----|

G|------------------------------------|
D|------------------------------------|
A|------------------------------------|
E|-7-77-777-777\5-55/7-77-777---------|

G|-----------------|
D|-----------------|
A|-----------------|
E|-0-57-0-35-0-----|

G|---------------------------------------|
D|---------------------------------------|
A|---------------------------------------|
E|-7-77-777-777\10-1010/7-77-777---------|

G|-------------------------|
D|-------------------------|
A|-------------------------|
E|-5-5-7-7-8-8-10-7-77-777-|

G|-------------------------|
D|-------------------------|
A|-------------------------|
E|-5-5-7-7-8-8-10-7-77-777-|

G|----------------|
D|----------------|
A|----------------|
E|-5-5-8-8-7-7-10-|

End:
G|----------------|
D|----------------| x8
A|----------------|
E|-0-00-3--5-3----|

G|----------------|
D|----------------| 
A|----------------|
E|-3~~~~~~~~~~~~~~|

G|------------------------------------|
D|------------------------------------| 
A|------------------------------------|
E|-0~~~~~~~~~~~~~~~~~~~~~~~~~~~~~~~~~~|



| /  slide up
| \  slide down
| h  hammer-on
| p  pull-off
| ~  vibrato
| +  harmonic
| x  Mute note

==============================================================================
            
Submit corrections

comments powered by Disqus
↑ Back to top | Kaiser Chiefs Bass for Highroyds. Lyrics for acoustic guitar and electric guitar. 1 Tablatures and chords are parodies/interpretations of the original songs. You may use it for private study, scholarship, research or language learning purposes only