» » »

Kaiser Chiefs, Half The Truth Tabs (ver.1)

Artists:  A B C D E F G H I J K L M N O P Q R S T U V W X Y Z # 

Half The Truth Tabs (ver.1)

Kaiser Chiefs Tabs
 Rating:
4/5 (6 votes)
Half The Truth lessons Tabs too difficult? Try these video lessons and learn fast
                Kaiser Chiefs - Half The Truth
Tuning: Standard (E A D G B e)


Intro
e|---(10)--------10-------------------8------------|
B|--------8-7-8-----10-8-7~---6-6-5-6----8-10-6~---|
G|-------------------------------------------------|
D|-------------------------------------------------|
A|-------------------------------------------------|
E|-------------------------------------------------|


Verse 4x
e|---(10)--------10-------------------8------------|
B|--------8-7-8-----10-8-7~---6-6-5-6----8-10-6~---|
G|-------------------------------------------------|
D|-------------------------------------------------|
A|-------------------------------------------------|
E|-------------------------------------------------|


Pre chorus 8x
e|---------------------|
B|---------------------|
G|---3-3-3-3-3-3-3-3---|
D|---3-3-3-3-3-3-3-3---|
A|---1-1-1-1-1-1-1-1---|
E|---------------------|


Verse 4x
e|---(10)--------10-------------------8------------|
B|--------8-7-8-----10-8-7~---6-6-5-6----8-10-6~---|
G|-------------------------------------------------|
D|-------------------------------------------------|
A|-------------------------------------------------|
E|-------------------------------------------------|


Pre chorus 8x
e|---------------------|
B|---------------------|
G|---3-3-3-3-3-3-3-3---|
D|---3-3-3-3-3-3-3-3---|
A|---1-1-1-1-1-1-1-1---|
E|---------------------|


Chorus 2x
e|-----------------------------------------------------------------------|
B|-----------------------------------------------------------------------|
G|---7---6---3--3-3--3-3-3-7---6---3--3-3--3-3-3-7---6---3--3-3--3-3-3---|
D|---7---6---3--3-3--3-3-3-7---6---3--3-3--3-3-3-7---6---3--3-3--3-3-3---|
A|---5---4---1--1-1--1-1-1-5---4---1--1-1--1-1-1-5---4---1--1-1--1-1-1---|
E|-----------------------------------------------------------------------|

e|-------------------------------------|
B|-------------------------------------|
G|-------------------------------------|
D|---5-5-5-5-5-5-5-5-5-5-5-5-5-5-5-5---|
A|---5-5-5-5-5-5-5-5-5-5-5-5-5-5-5-5---|
E|---3-3-3-3-3-3-3-3-3-3-3-3-3-3-3-3---|


Pre verse
e|-----------|
B|-----------|
G|---3---2---|
D|---3---2---|
A|---1---0---|
E|-----------|


Verse 2x
e|---(10)--------10-------------------8------------|
B|--------8-7-8-----10-8-7~---6-6-5-6----8-10-6~---|
G|-------------------------------------------------|
D|-------------------------------------------------|
A|-------------------------------------------------|
E|-------------------------------------------------|


Pre chorus 8x
e|---------------------|
B|---------------------|
G|---3-3-3-3-3-3-3-3---|
D|---3-3-3-3-3-3-3-3---|
A|---1-1-1-1-1-1-1-1---|
E|---------------------|


Chorus 2x
e|-----------------------------------------------------------------------|
B|-----------------------------------------------------------------------|
G|---7---6---3--3-3--3-3-3-7---6---3--3-3--3-3-3-7---6---3--3-3--3-3-3---|
D|---7---6---3--3-3--3-3-3-7---6---3--3-3--3-3-3-7---6---3--3-3--3-3-3---|
A|---5---4---1--1-1--1-1-1-5---4---1--1-1--1-1-1-5---4---1--1-1--1-1-1---|
E|-----------------------------------------------------------------------|

e|-------------------------------------|
B|-------------------------------------|
G|-------------------------------------|
D|---5-5-5-5-5-5-5-5-5-5-5-5-5-5-5-5---|
A|---5-5-5-5-5-5-5-5-5-5-5-5-5-5-5-5---|
E|---3-3-3-3-3-3-3-3-3-3-3-3-3-3-3-3---|


Bridge
e|-----------------------------------|
B|-----------------------------------|
G|-----------------------------------|
D|---8---7---6---5---8---7---6---5---|
A|---8---7---6---5---8---7---6---5---|
E|---6---5---4---3---6---5---4---3---|

e|---------------------------------------------|
B|---------------------------------------------|
G|---------------------------------------------|
D|---8---7---6-6-6-6-6-6-6-6-6-6-6-6-6-6-6-6---|
A|---8---7---6-6-6-6-6-6-6-6-6-6-6-6-6-6-6-6---|
E|---6---5---4-4-4-4-4-4-4-4-4-4-4-4-4-4-4-4---|

e|-------------------------------------|
B|-------------------------------------|
G|-------------------------------------|
D|---6-6-6-6-6-6-6-6-6-6-6-6-6-6-6-6---|
A|---6-6-6-6-6-6-6-6-6-6-6-6-6-6-6-6---|
E|---4-4-4-4-4-4-4-4-4-4-4-4-4-4-4-4---|


Chorus
e|-----------------------------------------------------------------------|
B|-----------------------------------------------------------------------|
G|---7---6---3--3-3--3-3-3-7---6---3--3-3--3-3-3-7---6---3--3-3--3-3-3---|
D|---7---6---3--3-3--3-3-3-7---6---3--3-3--3-3-3-7---6---3--3-3--3-3-3---|
A|---5---4---1--1-1--1-1-1-5---4---1--1-1--1-1-1-5---4---1--1-1--1-1-1---|
E|-----------------------------------------------------------------------|

e|-------------------------------------|
B|-------------------------------------|
G|-------------------------------------|
D|---5-5-5-5-5-5-5-5-5-5-5-5-5-5-5-5---|
A|---5-5-5-5-5-5-5-5-5-5-5-5-5-5-5-5---|
E|---3-3-3-3-3-3-3-3-3-3-3-3-3-3-3-3---|

e|-----------------------------------------------------------------------|
B|-----------------------------------------------------------------------|
G|---7---6---3--3-3--3-3-3-7---6---3--3-3--3-3-3-7---6---3--3-3--3-3-3---|
D|---7---6---3--3-3--3-3-3-7---6---3--3-3--3-3-3-7---6---3--3-3--3-3-3---|
A|---5---4---1--1-1--1-1-1-5---4---1--1-1--1-1-1-5---4---1--1-1--1-1-1---|
E|-----------------------------------------------------------------------|

e|---------------------------------------------------------|
B|---------------------------------------------------------|
G|---------------------------------------------------------|
D|---5-5-5-5-5-5-5-5-5-5-5-5-5-5-5-5-5-5-5-5-5-5-5-5-5-/---|
A|---5-5-5-5-5-5-5-5-5-5-5-5-5-5-5-5-5-5-5-5-5-5-5-5-5-/---|
E|---3-3-3-3-3-3-3-3-3-3-3-3-3-3-3-3-3-3-3-3-3-3-3-3-3-/---|


*Lyrics*

Girl and boy
Everything in full swing
Heads Or Tails
Doesn't make a difference
Beneath the glamour
There was always gonna be
Amateur dramatics
A lot of bad behaviour

I would see
Glasses on the table
One two three
But only you and me
Wearing nothing
In the lap of luxury
Sipping slowly
Not a leg to stand on

Take my money
To waste on paper
Leave the table
Bad behaviour

I got my spies
Sitting with me constantly
To be my eyes
And tell me what I never see
Cos a ghost
Don't feel love or nothing
Teflon cow
Get ready for the credit clobber

Secret mole
Getting it together
With a big fat bowl
Of alphabet spaghetti
Watch the birdie
Looking through the mirror
Polly want a cracker?
That's not what I heard

Take my money
To waste on paper
Leave the table
Bad behaviour

And I will not lie to you
But I definately only gave you half the truth
And I will not lie to you

And I will not lie to you
But I definately only gave you half the truth
And I will not lie to you

Gentlemen
Turn off your recorders
I van hear them buzzing
Got to get to
California
Where this woman
Is threatening to sue me

Get right back
Back to the beginning
Where we start off single
And everything is in full swing
Everyone's around you
Wearing big old hats
Come on
I'm playing the piano now

Take my money
To waste on paper
Leave the table
Bad behaviour

And I will not lie to you
But I definately only gave you half the truth
And I will not lie to you

And I will not lie to you
But I definately only gave you half the truth
And I will not lie to you

Listen
I won't lie
So baby don't cry
The way I'm feeling right now
I'm feeling so high
I can't tell you the truth
Baby you know why
Cos everybody talks about me
I'm a known guy
I'll tell you half the truth
At least I told you half
When I know the rest of it
I'll tell you but if you only ask
Cos I'm a gold digga
And I should know better

And I will not lie to you
But I definately only gave you half the truth
And I will not lie to you

And I will not lie to you
But I definately only gave you half the truth
And I will not lie to you

_____________________
            
Submit corrections

comments powered by Disqus
↑ Back to top | Kaiser Chiefs Tabs for Half The Truth. Lyrics for acoustic guitar and electric guitar. Tablatures and chords are parodies/interpretations of the original songs. You may use it for private study, scholarship, research or language learning purposes only