» » »

Kaiser Chiefs, Born To Be A Dancer Tabs (ver.4)

Artists:  A B C D E F G H I J K L M N O P Q R S T U V W X Y Z # 

Born To Be A Dancer Tabs (ver.4)

Kaiser Chiefs Tabs
Rating:
0/5 (0 votes)
Born To Be A Dancer lessons Tabs too difficult? Try these video lessons and learn fast
                Kaiser Chiefs - Born To Be A Dancer

Intro Piano arr. for guitar

e [-----5-------5-------5-------5-------6-------6-------6-------8---]
B [---6---6---6---6---6---6---6---6---6---6---6---7---6---6---6---6-]
G [-7-------7-------7-------7-------7-------7-------7-------7-------]
D [-----------------------------------------------------------------]
A [-----------------------------------------------------------------]
E [-----------------------------------------------------------------]

Verse

e [-----------------------------------------------------------]
B [-----------------------------------------------------------]
G [------------------------------------------x3 (after intro--]
D [-0-0------0-0-2-3-2-0--------------------------------------]
A [-----0--0-------------3-1--1------1--1-0-0-----------------]
E [-----------------------------1--1--------------------------]

Chorus 

e [-------------------------------------------------------------------]
B [----------------------------------------------------------------x2-]
G [-------------------------------------------------------------------]
D [-5-5-5-5-5-5-5-5-3-3-3-3-3-3-3-3-8-8-8-8-8-8-8-8-6-6-6-6-6-6-6-6---]
A [-5-5-5-5-5-5-5-5-3-3-3-3-3-3-3-3-8-8-8-8-8-8-8-8-6-6-6-6-6-6-6-6---]
E [-3-3-3-3-3-3-3-3-1-1-1-1-1-1-1-1-6-6-6-6-6-6-6-6-4-4-4-4-4-4-4-4---]

Fill 1 - played after chorus

e [------------------------]
B [------------------------]
G [------------------------]
D [-5---5-5---5-5---5-3--6-]
A [-5---5-5---5-5---5-3--6-]
E [-3---3-3---3-3---3-1--4-]

Fill 2 - played after fill 1 on second chorus

e [------------------------]
B [------------------------]
G [----------------------8-]
D [-8---8-8---8-8---8-6--8-]
A [-8---8-8---8-8---8-6--6-]
E [-6---6-6---6-6---6-4----]

Solo Part 1

e [------------------------------------------]
B [---------------------------------------x2-]
G [-2-2-0-0-2-2-3-2-0------------------------]
D [-------------------3-2-3-3-2-2-3-3-0-0----]
A [------------------------------------------]
E [------------------------------------------]

Solo Part 2
        
e [-------------------------------------------------------------------]
B [--------------------------------2-------2-------2-------2-------x4-]
G [----------------------------5-0------------------------------------]
D [-0--0-0-2--2-2-2-3--3-3-3/5----------------------------------------]
A [----------------------------------0-0-0---0-0-0---0-0-0---0-0-0----]
E [-------------------------------------------------------------------]




Outro

Chorus x4 Followed by

e [---------------]
B [---------------]
G [---------------]
D [-5---5-5---5-5-]
A [-5---5-5---5-5-]
E [-3---3-3---3-3-]
            
Submit corrections

comments powered by Disqus
↑ Back to top | Kaiser Chiefs Tabs for Born To Be A Dancer. Lyrics for acoustic guitar and electric guitar. Tablatures and chords are parodies/interpretations of the original songs. You may use it for private study, scholarship, research or language learning purposes only