array
(
    
'borntobeadancer1' => 'borntobeadancer1'
    'kaiserchiefs' 
=> 'kaiserchiefs'
)
Born To Be A Dancer Tabs (ver. 3) by Kaiser Chiefs @ AZ CHORDS.COM
» » »

Born To Be A Dancer Tabs (ver.3)

Artists:  A B C D E F G H I J K L M N O P Q R S T U V W X Y Z # 

Born To Be A Dancer Tabs (ver.3)

Kaiser Chiefs
Rating:
0/5 (0 votes)

Hard to play? Try these video lessons and learn fast.
                Kaiser Chiefs - Born To Be A Dancer

Key: -- = Pause


Verse

-----------------------------------------------------------|
-----------------------------------------------------------|
------------------------------------------x3 (after intro--|
-0-0------0-0-2-3-2-0--------------------------------------|
-----0--0-------------3-1--1------1--1-0-0-----------------|
-----------------------------1--1--------------------------|

Chorus

-3333-3-3-1111-1-1-6666-6-6-4444-4-4-|
-3333-3-3-1111-1-1-6666-6-6-4444-4-4-|
-4444-4-4-2222-2-2-7777-7-7-5555-5-5-|x2 (then....)
-5555-5-5-3333-3-3-8888-8-8-6666-6-6-|
-5555-5-5-3333-3-3-8888-8-8-6666-6-6-|
-3333-3-3-1111-1-1-6666-6-6-4444-4-4-|

-7-77-77-7--5-8------|
-7-77-77-7--5-8------|
-8-88-88-8--6-9------|x2
-9-99-99-9--7-10-----|
-9-99-99-9--7-10-----|
-7-77-77-7--5-8------|

Verse
Chorus

Extra Chorus & Solo

-10-1010-1010-10--8--11------------------------------------------------|
-10-1010-1010-10--8--11------------------------------------------------|
-11-1112-1212-12--9--12----2--2-0--0-2-2-3-2-0-------------------------|
-12-1212-1212-12--10-13------------------------3-2-3--3-2--2-3--3-0-0--|
-12-1212-1212-12--10-13------------------------------------------------|
-10-1010-1010-10--8--11------------------------------------------------|

-----0-0-1-1-3-3--3----3-------|
--------------------7----7-----|
-7-7---------------------------|x2
-------------------------------|
-------------------------------|
-------------------------------|
            
Hard to play? Try these video lessons and learn fast. | Correct




comments powered by Disqus
↑ Back to top | Tablatures and chords are parodies/interpretations of the original songs. You may use it for private study, scholarship, research or language learning purposes only