» » »

Born To Be A Dancer Bass tabs (ver.2)

Artists:  A B C D E F G H I J K L M N O P Q R S T U V W X Y Z # 

Born To Be A Dancer Bass tabs (ver.2)

Kaiser Chiefs
Rating:
0/5 (0 votes)

Hard to play? Try these video lessons and learn fast.
                -------------------------------------------------------------------------------
			     BORN TO BE A DANCER - Kaiser Chiefs
-------------------------------------------------------------------------------


Tuning: Normal EADG

Intro
G|---------------------------------------------------------------------------|
D|---------------------------------------------------------------------------|
A|--3-11----3-55----3-11---1-1-1-1-3-3-3-3-----------------------------------|
E|---------------------------------------------------------------------------|

Verse
G|---------------------------------------------------------------------------|
D|-0-0---0-0-2-3-2-0---------------------------------------------------------|
A|----0-0------------3-1-1-----1-1-0-0---------------------------------------|
E|-------------------------1-1-----------------------------------------------|

Chorus
G|---------------------------------------------------------------------------|
D|---------------------------------------------------------------------------|
A|----------------------------------1-1-1-1-1-1-1-1--------------------------|
E|-3-3-3-3-3-3-3-3--1-1-1-1-1-1-1-1-----------------4-4-4-4-4-4-4-4----------|

Chorus end 1
G|---------------------------------------------------------------------------|
D|---------------------------------------------------------------------------|
A|---------------------------------------------------------------------------|
E|-3-33-33-3-1-4--3-33-33-3-1-4----------------------------------------------|

Chorus end 2
G|---------------------------------------------------------------------------|
D|---------------------------------------------------------------------------|
A|---------------------------------------------------------------------------|
E|-6-66-66-6-4-8---6-66-66-6-4-8---------------------------------------------|

Guitar Solo 1
G|---------------------------------------------------------------------------|
D|-0-0---0--0-1-0------------------------------------------------------------|
A|----3-3---------3-1-0-1--1-0-0-1-1-0-0-------------------------------------|
E|---------------------------------------------------------------------------|

Guitar Solo 2
G|---------------------------------------------------------------------------|
D|-0-0-----------------------------------------------------------------------|
A|----7--7-8--8-10\15/12-000-12-000-12-000-12-000----------------------------|
E|---------------------------------------------------------------------------|

End
G|---------------------------------------------------------------------------|
D|---------------------------------------------------------------------------|
A|---------------------------------------------------------------------------|
E|-3-33-33-------------------------------------------------------------------|

Order:

Intro         	x1
Verse 		x4
Chorus 		x2
Chorus End 1	x1
Verse 		x2
Chorus 		x2
Chorus End 1	x1
Chorus End 2	x1
Guitar Solo 	x2
Guitar solo 2 	x4
Chorus 		x4
End		x1


| /  slide up
| \  slide down
| h  hammer-on
| p  pull-off
| ~  vibrato
| +  harmonic
| x  Mute note
===============================================================================
            
Hard to play? Try these video lessons and learn fast. | Correct




comments powered by Disqus
↑ Back to top | Tablatures and chords are parodies/interpretations of the original songs. You may use it for private study, scholarship, research or language learning purposes only