» » »

Kaiser Chiefs, Borm To Be A Dancer Tabs (ver.1)

Artists:  A B C D E F G H I J K L M N O P Q R S T U V W X Y Z # 

Borm To Be A Dancer Tabs (ver.1)

Kaiser Chiefs Tabs
Rating:
0/5 (0 votes)
Borm To Be A Dancer lessons Tabs too difficult? Try these video lessons and learn fast
                This is my first tab hope you like it

Intro
e---------5-----------------------6--------------------8--|
B-----6-------6------x4-------6-------6---x3-------6------|
G--7----------------------7--------------------7----------|   x2
D---------------------------------------------------------|
A---------------------------------------------------------|
E---------------------------------------------------------|

Verse
e-----------------------------------------------------|
B-----------------------------------------------------|
G-----------------------------------------------------| for as long a needed
D--0-----0-------0-0-0--2h3p2-------------------------|
A----------0---0--------------3--1---1--------1--1-00-|
E--------------------------------------1----1---------|

Chorus
e---------------------------------|
B---------------------------------|
G---------------------------------|
D-5-5-5-5-3-3-3-3-8-8-8-8-6-6-6-6-|
A-5-5-5-5-3-3-3-3-8-8-8-8-6-6-6-6-|
E-3-3-3-3-1-1-1-1-6-6-6-6-4-4-4-4-|

Bridge
e--------------------------|
B--------------------------|
G--------------------------| x2
D-5-----5-5--5-5----5-3-6--|
A-5-----5-5--5-5----5-3-6--|
E-3-----3-3--3-3----3-1-4--|

Verse

Chorus

Bridge

i haven't worked out the solo yet

Chorus

Bridge
            
Submit corrections

comments powered by Disqus
↑ Back to top | Kaiser Chiefs Tabs for Borm To Be A Dancer. Lyrics for acoustic guitar and electric guitar. Tablatures and chords are parodies/interpretations of the original songs. You may use it for private study, scholarship, research or language learning purposes only