» » »

Angry Mob Tabs

Artists:  A B C D E F G H I J K L M N O P Q R S T U V W X Y Z # 

Angry Mob Tabs

(ver. 1)
Kaiser Chiefs Tabs
 Rating:
4.8/5 (17 votes)
    Angry Mob lessons Tabs too difficult? Try these video lessons and learn fast
                Track: The Angry Mob




e|-------------------------------------------------------------------------|
B|-----5--5--4--5--5--4--5--5--4--5--5--4----------------------------------|
G|-----6--6--4--6--6--4--6--6--4--6--6--4----------------------------------|
D|-----6--6--4--6--6--4--6--6--4--6--6--4----------------------------------|
A|-------------------------------------------------------------------------|
E|-------------------------------------------------------------------------|

Rpt


Riff 1

e|----------------6-----6-6--5----5----------------------------------------|
B|---5--5--4--5---6-----6-6--5----5----------------------------------------|
G|---6--6--4--6---6-----6-6--6----6----------------------------------------|
D|---6--6--4--6---8-----8-8--7----7----------------------------------------|
A|---4--4--4--4---8-----8-8--7----7----4-4-----4-4-4-----------------------|
E|----------------6-----6-6--5----5-0--2-2--0--2-2-2-----------------------|


Riff 1
I can prove anything
I'll make you admit again and again

Riff 1
That I can prove anything
The way that's it's writ

Riff 2
e|-------------------------------------------------------------------------|
B|-------------------------------------------------------------------------|
G|-------------------------------------------------------------------------|
D|-------------------------------------------------------------------------|
A|----1-------------/4-------------------------1-----------/4--------------|
E|-------------------------------1-----------------------------------------|
And its only 'cos you came here with your brothers too
If you came here on your own you'd be dead

e|-------------------------------------------------------------------------|
B|-------------------------------------------------------------------------|
G|-------------------------------------------------------------------------|
D|-------------------------------------------------------------------------|
A|----1-------------/4-------------------------1---------------------------|
E|-------------------------------1-----------------------------------------|
It's only 'cos you follow what the others do
It's no excuse to say you're easily lead


Riff 1
You can choose anything
You choose to lose again and again

Riff 1
You could do anything
But why should do anything again


Riff 2
Its only cos you came here with your brothers too
If you came here on your own you'd be dead

Riff 2
Winding yourself up until you're turning blue
Repeating everything that you've read



Ab                              Eb  C#
So here we go with the letter:

Ab                          Eb  C#
Well can you fix it for me

B                         Eb C#
Because we need entertainment

B
To keep us all off the streets

B  C# Eb                C#             B
So tonight you'll sleep softly in your bed

e|-------------------------------------------------------------------------|
B|-----5p4-----------------------------------------------------------------|
G|-------------4-----------------------------------------------------------|
D|-----------------4-------------------------------------------------------|
A|-------------------------------------------------------------------------|
E|-------------------------------------------------------------------------|

Riff 1
You could try anything
And no one would know apart from you me

Riff 1
And you could stop anything
It starts with just one and just a two and three


Riff 2
Its only cos you came here with your brothers too
If you came here on your own you'd be dead

Riff 2
You raise a glass or two, and raise a fist or two
And get a shopping basket wrapped round your head


Ab                              Eb  C#
So here we go with the letter:

Ab                          Eb  C#
Well can you fix it for me

B               Eb C#
24 hour drinking

B
To keep us all off the streets

B  C# Eb                C#             B
So tonight you'll sleep softly in your bed

Riff 3
e|-------------------------------------------------------------------------|
B|-------------------------------------------------------------------------|
G|-------------------------------------------------------------------------|
D|---9--11-12-11--12--14\11------------------------------------------------|
A|---9--11-12--9--10--12\9-------------------------------------------------|
E|---7--9--10--------------------------------------------------------------|

Bass transcribed for guitar
e|-------------------------------------------------------------------------|
B|-------------------------------------------------------------------------|
G|-------------------------------------------------------------------------|
D|-------------------------------------------------------------------------|
A|---9h10p9----------------------------------------------------------------|
E|------------12--10--9--7-------------------------------------------------|

Rpt to end

We are the angry mob
We read the papers everyday day
We like who like
We hate who we hate
But we're also easily swayed
            
Submit corrections

↑ Back to top | Kaiser Chiefs Tabs for Angry Mob. Lyrics for acoustic guitar and electric guitar. Tablatures and chords are parodies/interpretations of the original songs. You may use it for private study, scholarship, research or language learning purposes only