» » »

Kaiser Chiefs, Always Happens Like That Bass tabs (ver.1)

Artists:  A B C D E F G H I J K L M N O P Q R S T U V W X Y Z # 

Always Happens Like That Bass tabs (ver.1)

Kaiser Chiefs Tabs
 Rating:
4/5 (5 votes)
Always Happens Like That lessons Tabs too difficult? Try these video lessons and learn fast
1
                -----------------------------------------------------------------
-----------------------------------------------------------------


Tuning: EADG 

Intro + 1st Verse: 

0:02 - this will repeat all the way to Chorus just keep playing

G|---------------------------------------------------------------|
D|---------------------------------------------------------------|
A|---------------------------------------------------------------|
E|-6-0-6--0-6-5--8-0-8--0-8-0------------------------------------|

Until Chorus comes in @ 0:48 - 

G|---------------------------------------------------------------|
D|------7-------------5------------------------------------------|
A|--5------------3-----------------------------------------------|
E|-------6--------------5----------------------------------------|

End of the Chorus x1 here @ 1:02 - 

G|---------------------------------------------------------------|
D|---------------------------------------------------------------|
A|---------------------------------------------------------------|
E|-66--55--33--11----55--33--11--00------------------------------|

Then goes the Verse again same as the beginning + Chorus exactly
the same, only the finishing part is repeated 2 times...

Then little intermission and guitar "solo", where you still play
verse riff... and @ 2:16 --- 

G|---------------------------------------------------------------|
D|---------------------------------------------------------------|
A|---------------------------------------------------------------|
E|-6\8-----8/6------6\8----8/6-----------------------------------|

@ 2:36 start the regular verse pattern again and the end is on -

G|---------------------------------------------------------------|
D|---7--7--7-----------------------------------------------------|
A|---5--5--5-----------------------------------------------------|
E|---------------------------------------------------------------|

Let ring....

Please don't hesitate to email with correction, I would love to know myself :)

| /  slide up
| \  slide down
| h  hammer-on
| p  pull-off
| ~  vibrato
| +  harmonic
| x  Mute note
            
Submit corrections

comments powered by Disqus
↑ Back to top | Kaiser Chiefs Bass for Always Happens Like That. Lyrics for acoustic guitar and electric guitar. 1 Tablatures and chords are parodies/interpretations of the original songs. You may use it for private study, scholarship, research or language learning purposes only