>
 >
Embarque Ma Belle

Embarque Ma Belle Bass Tabs

Kain - Embarque Ma Belle chords, tabs, tablatures, lyrics

Guitar lessons | Add/correct | Request | Top 50 tabs Artists:  A B C D E F G H I J K L M N O P Q R S T U V W X Y Z 0-9

Embarque Ma Belle Bass Tabs – Kain

CD, Sheet music, Poster

Do you like Embarque Ma Belle? Share with your friends now
Bass TabsChordsTabsUkulele
        Embarque ma belle,  bass tab

  traduit en tablature par steve morin



 |       |       |       |        |       |       |       |        
|--------------------------------|--------------------------------|
|--------------------------------|--------------------------------|
|--------------------------------|--------------------------------|
|--------------------------------|--------------------------------|
 
 |       |       |       |        |       |       |       |        
|--------------------------------|--------------------------------|
|--------------------------------|--------------------------------|
|--------------------------------|--------------------------------|
|--------------------------------|--------------------------------|
 
 |       |       |       |        |       |       |       |        
|--------------------------------|--------------------------------|
|--------------------------------|--------------------------------|
|--------------------------------|--------------------------------|
|--------------------------------|--------------------------------|
 
 |       |       |       |        |       |       |       |        
|--------------------------------|--------------------------------|
|--------------------------------|--------------------------------|
|6-------5-------3-------8-------|--------------------------------|
|--------------------------------|6-------------6-6-------------6-|
 
 |       |       |       |        |       |       |       |        
|--------------------------------|--------------------------------|
|--------------------------------|--------------------------------|
|------------------------8-------|--------------------------------|
|6-------------6-6---------------|6-------------6-6---------------|
 
 |       |       |       |        |       |       |       |        
|--------------------------------|--------------------------------|
|----------------5-----8-5-------|--------------------------------|
|------------------------------8-|6-------------6-6-------------6-|
|6-------------------------------|--------------------------------|
 
 |       |       |       |        |       |       |       |        
|--------------------------------|--------------------------------|
|--------------------------------|--------------------------------|
|8-------------6-8-------6-------|--------------------------------|
|----------------------8-------8-|10------------8-10------------1-|
 
 |       |       |       |        |       |       |       |        
|--------------------------------|--------------------------------|
|----------------------3---------|--------------------------------|
|----------------5-------5-------|6---------------6-------6-------|
|3-------------3---------------3-|----------------------6-------6-|
 
 |       |       |       |        |       |       |       |        
|--------------------------------|--------------------------------|
|--------------------------------|--------------------------------|
|8---------------8-------8-------|5---------------5---------------|
|--------------8-------8-------8-|--------------8---------6-----6-|
 
 |       |       |       |        |       |       |       |        
|--------------------------------|--------------------------------|
|----------------------3---------|--------------------------------|
|----------------5-------5-------|6---------------6-------6-------|
|3-------------3---------------3-|--------------6---------------6-|
 
 |       |       |       |        |       |       |       |        
|--------------------------------|--------------------------------|
|--------------------------------|--------------------------------|
|8---------------8-------6-------|5---------------5-------5---1---|
|--------------8-------8-------8-|--------------8-----------3-----|
 
 |       |       |       |        |       |       |       |        
|--------------------------------|--------------------------------|
|----------------------5---------|--------------------------------|
|----------------5-------5-------|6---------------6-------6-------|
|3-------------3---------------3-|--------------6-------6-------6-|
 
 |       |       |       |        |       |       |       |        
|--------------------------------|--------------------------------|
|--------------------------------|--------------------------------|
|8---------------8-------7-------|6---------------6-------6-------|
|--------------8-------8-------8-|--------------8---------------8-|
 
 |       |       |       |        |       |       |       |        
|--------------------------------|--------------------------------|
|--------------------------------|----------------------8---------|
|8---------------8-----8---------|--------------8---------8-----8-|
|--------------8---------8-------|6---------------6---------------|
 
 |       |       |       |        |       |       |       |        
|--------------------------------|--------------------------------|
|----------------8-------7-----7-|--------------------------------|
|--------------8-------8---------|--------------------------------|
|6-------------------------------|3-------------3-6-----5-3-----6-|
 
 |       |       |       |        |       |       |       |        
|--------------------------------|--------------------------------|
|--------------------------------|--------------------------------|
|5---------------5-----3---------|--------------------------------|
|--------------5---------6-----6-|3-------------3-6-----5-3-----6-|
 
 |       |       |       |        |       |       |       |        
|--------------------------------|--------------------------------|
|--------------------------------|--------------------------------|
|5---------------5-----5---------|6---------------6-------8-----10|
|--------------5---------5-----6-|--------------6-------6---------|
 
 |       |       |       |        |       |       |       |        
|--------------------------------|--------------------------------|
|--------------------------------|----------------8-----8---------|
|8---------------8-----8---------|--------------8---------8-----8-|
|--------------8---------8-----7-|6-------------------------------|
 
 |       |       |       |        |       |       |       |        
|--------------------------------|--------------------------------|
|--------------------------------|--------------------------------|
|--------------------------------|--------------------------------|
|6-------------3-6-----6-5-----5-|3-------------3-6-----5-3-----6-|
 
 |       |       |       |        |       |       |       |        
|--------------------------------|--------------------------------|
|--------------------------------|--------------------------------|
|5---------------5-----3---------|--------------------------------|
|--------------5---------6-----6-|3-------------3-6-----5-3-----6-|
 
 |       |       |       |        |       |       |       |        
|--------------------------------|--------------------------------|
|--------------------------------|--------------------------------|
|5---------------5-----5---------|6---------------6-------8-----10|
|--------------5---------5-----6-|--------------6-------6---------|
 
 |       |       |       |        |       |       |       |        
|--------------------------------|--------------------------------|
|--------------------------------|----------------8-----8---------|
|8---------------8-----8---------|--------------8---------8-----8-|
|--------------8---------8-----7-|6-------------------------------|
 
 |       |       |       |        |       |       |       |        
|------7h5-------------0---------|--------------------------------|
|--------------8-8---------------|--------------------------------|
|--------------------------------|--------------------------------|
|6-----------------------1---2-3-|3-------------5-6-----5-3-----6-|
 
 |       |       |       |        |       |       |       |        
|--------------------------------|--------------------------------|
|--------------------------------|--------------------------------|
|5---------------5-----3---------|--------------------------------|
|--------------6---------6-----5-|3-------------5-6-----5-3-----6-|
 
 |       |       |       |        |       |       |       |        
|--------------------------------|--------------------------------|
|--------------------------------|--------------------------------|
|5-----5-5-------5-----5---------|6---------------6-------8---8/10|
|--------------6---------6-----6-|--------------6-------6---------|
 
 |       |       |       |        |       |       |       |        
|--------------------------------|--------------------------------|
|--------------------------------|----------------------8---------|
|8-----8-8-------8-----8---------|--------------8---------8-----8-|
|--------------8---------8-----8-|6---------------6---------------|
 
 |       |       |       |        |       |       |       |        
|--------------------------------|--------------------------------|
|----------------------8---------|--------------------------------|
|--------------8---------8-----8-|6---------------6-------6-------|
|6---------------6---------------|--------------6---------------6-|
 
 |       |       |       |        |       |       |       |        
|--------------------------------|--------------------------------|
|--------------------------------|--------------------------------|
|8---------------8-------6-------|5---------------5-----5---------|
|--------------8-------8-------8-|--------------5---------6-----6-|
 
 |       |       |       |        |       |       |       |        
|--------------------------------|--------------------------------|
|--------------------------------|--------------------------------|
|------------------------5-------|6---------------6-----6-6-----8-|
|3-------------3-6-----6-------6-|--------------6-----------------|
 
 |       |       |       |        |       |       |       |        
|--------------------------------|--------------------------------|
|--------------------------------|--------------------------------|
|8---------------8-----8-8-----6-|5---------------5-----5---------|
|--------------8-----------------|--------------5---------6-----6-|
 
 |       |       |       |        |       |       |       |        
|--------------------------------|--------------------------------|
|--------------------------------|--------------------------------|
|----------------------5-5-------|6---------------6-------6-----8-|
|3-------------3-6-------------6-|--------------6-----------------|
 
 |       |       |       |        |       |       |       |        
|--------------------------------|--------------------------------|
|--------------------------------|--------------------------------|
|8---------------8-------8-------|5---------------5-----5---------|
|--------------8---------------5-|--------------5---------5-----5-|
 
 |       |       |       |        |       |       |       |        
|--------------------------------|--------------------------------|
|--------------------------------|--------------------------------|
|--------------------------------|6---------------6-----6-6-----8-|
|3-------------3-5-----5-6-------|--------------6-----------------|
 
 |       |       |       |        |       |       |       |        
|--------------------------------|--------------------------------|
|--------------------------------|--------------------------------|
|8---------------8-------7-------|6---------------6-------6-----8-|
|--------------8-------8-------8-|--------------6-------6---------|
 
 |       |       |       |        |       |       |       |        
|--------------------------------|--------------------------------|
|--------------------------------|------------------------8-------|
|8---------------8-----8---------|----------------6---7-8-------8-|
|--------------8---------8-----7-|6-------------6-----------------|
 
 |       |       |       |        |       |       |       |        
|----6-7-6-----------------------|--------------------------------|
|----------------8---------------|--------------------------------|
|--------------------------------|--------------------------------|
|6-------------6-------0-1-----2-|3-------------5-6-----5-3-----6-|
 
 |       |       |       |        |       |       |       |        
|--------------------------------|--------------------------------|
|--------------------------------|--------------------------------|
|5---------------5-----5---------|--------------------------------|
|--------------5---------5-----5-|3-------------5-6-----5-3-----6-|
 
 |       |       |       |        |       |       |       |        
|--------------------------------|--------------------------------|
|--------------------------------|--------------------------------|
|5---------------5-----5---------|6---------------6-------8h-10-8-|
|--------------5---------6-----5-|--------------6-------6---------|
 
 |       |       |       |        |       |       |       |        
|--------------------------------|--------------------------------|
|--------------------------------|------------------------8-------|
|8---------------8-----8---------|----------------6---7-8-------8-|
|--------------8---------8-----7-|6-------------6-----------------|
 
 |       |       |       |        |       |       |       |        
|--------------------------------|--------------------------------|
|8-------------8-5-----3---------|--------------------------------|
|--------7-8-------------5-4-3---|--------------------------------|
|------6-----------------------6-|3-------------5-6-----5-3-----1-|
 
 |       |       |       |        |       |       |       |        
|--------------------------------|--------------------------------|
|--------------------------------|--------------------------------|
|5---------------5-----3-1-----0-|--------------------------------|
|--------------1-----------------|3-------------5-6-----5-3-----1-|
 
 |       |       |       |        |       |       |       |        
|--------------------------------|--------------------------------|
|--------------------------------|--------------------------------|
|5---------------5-----5---------|6---------------6-------8--10-8-|
|--------------5---------6-----5-|--------------6-------6---------|
 
 |       |       |       |        |       |       |       |        
|--------------------------------|--------------------------------|
|--------------------------------|----------------8-----8---------|
|8---------------8-----8---------|--------------8---------8-----8-|
|--------------8---------8-----7-|6-------------------------------|
 
 |       |       |       |        |       |       |       |        
|--------------------------------|--------------------------------|
|--------------------------------|--------------------------------|
|----------------1-------2-------|3-------------1-3-----3-0-----3-|
|6-------------1-----------------|--------------------------------|
 
 |       |       |       |        |       |       |       |        
|--------------------3-----------|--------------------------------|
|1---------------3h5-----5-----3-|--------------------------------|
|--------------6-----------------|--------------------------------|
|--------------------------------|6-------------6-6-----6-6-----3-|
 
 |       |       |       |        |       |       |       |        
|--------------------------------|--------------------------------|
|--------------------------------|--------------------------------|
|--------------------------------|3---------------3-------3-----5-|
|3-------------3-3-----5-6-----3-|--------------3-------3---------|
 
 |       |       |       |        |       |       |       |        
|--------------------------------|--------------------------------|
|--------------------------------|--------------------------------|
|6-------------3-6-------7-------|8---------------5---6h8-5-------|
|------------------------------8-|--------------8---------------8-|
 
 |       |       |       |        |       |       |       |        
|--------------------------------|--------------------------------|
|--------------------------------|--------------------------------|
|8-------------------------------|--------------------------------|
|--------------------------------|3-------------5-6-----5-3-----6-|
 
 |       |       |       |        |       |       |       |        
|--------------------------------|--------------------------------|
|--------------------------------|--------------------------------|
|5---------------5-----3---------|--------------------------------|
|--------------5---------6-----5-|3-------------5-6-----5-3-----6-|
 
 |       |       |       |        |       |       |       |        
|--------------------------------|--------------------------------|
|--------------------------------|--------------------------------|
|5---------------5-----5---------|6---------------6-------6-------|
|--------------5---------6-----5-|--------------6-------6-------6-|
 
 |       |       |       |        |       |       |       |        
|--------------------------------|--------------------------------|
|--------------------------------|----------------------8---------|
|8---------------8-----8---------|--------------6h8-------8-----8-|
|--------------8---------8-----7-|6-------------------------------|
 
 |       |       |       |        |       |       |       |        
|------7h6-----------------------|--------------------------------|
|--------------8-8---------------|--------------------------------|
|--------------------------------|--------------------------------|
|6---------------------0-1-----2-|3-------------5-6-----5-3-----6-|
 
 |       |       |       |        |       |       |       |        
|--------------------------------|--------------------------------|
|--------------------------------|--------------------------------|
|5---------------5-----3---------|--------------------------------|
|--------------5---------6-----5-|3-------------5-6-----5-3-----6-|
 
 |       |       |       |        |       |       |       |        
|--------------------------------|--------------------------------|
|--------------------------------|--------------------------------|
|5---------------5-----5---------|6---------------6-----6-------8-|
|--------------6---------5-----6-|--------------6---------6-------|
 
 |       |       |       |        |       |       |       |        
|--------------------------------|--------------------------------|
|--------------------------------|--------------------------------|
|8-----8-8-------8-----8-7-------|--------6---------------6-----8-|
|--------------8-----------------|----------------------6---------|
 
 |       |       |       |        |       |       |       |        
|--------------------------------|--------------------------------|
|--------------------------------|--------------------------------|
|8---------------8-----8---------|--------------------------------|
|--------------8---------8-----7-|6-------------------------------|
 
 |       |       |       |        |       |       |       |        
|--------------------------------|--------------------------------|
|--------------------------------|--------------------------------|
|--------------------------------|--------------------------------|
|--------------------------------|------------------------1/------|
 
 |       |       |       |   Fin  
|--------------------------------|
|--------------------------------|
|--------------------------------|
|6-------------------------------|
 





Comments


Popular Kain tabs & chords
Adam Et Eve Chords
Comme Dans L'temps Chords
L'autre Bord Chords
La Maison Est Grande Chords
Embarque Ma Belle Tabs
La Maison Est Grande Tabs
Adam Et Eve Ukulele
Comme Dans Ltemps Ukulele
Embarque Ma Belle Ukulele
Mexico Ukulele


Song lyrics



↑ Back to top | Tablatures and chords are parodies/interpretations of the original songs. You may use it for private study, scholarship, research or language learning purposes only
© 2014 AZChords.com Contact us | Privacy policy | DMCA | Add/correct tabs | Request tabs | Top 50 tabs