» » »

Adam Et Eve Bass tabs (ver.1)

Artists:  A B C D E F G H I J K L M N O P Q R S T U V W X Y Z # 

Adam Et Eve Bass tabs (ver.1)

Kain
Rating:
0/5 (0 votes)

Hard to play? Try these video lessons and learn fast.
                 
    ADAM ET EVE ,écrit par KAIN.  bass

    bass traduit en tablature par Steve Morin



|       |       |       |        |       |       |       |        
|--------------------------------|--------------------------------|
|--------------------------------|--------------------------------|
|--------------------------------|5---5---------------------------|
|--------------------------------|----------------3---2-------5---|
 
 |       |       |       |        |       |       |       |        
|--------------------------------|--------------------------------|
|--------------------------------|--------------------------------|
|--------------------------------|5---5-----------5---5-----------|
|7---7-------7-3-5---5---5---5---|--------------5-------------5---|
 
 |       |       |       |        |       |       |       |        
|--------------------------------|--------------------------------|
|--------------------------------|--------------------------------|
|--------------------------------|5---5---------------------------|
|----7-------7-3-5---5---5---5---|----------------3---2-------5---|
 
 |       |       |       |        |       |       |       |        
|--------------------------------|--------------------------------|
|--------------------------------|--------------------------------|
|--------------------------------|5---5-----------5---5-----------|
|7---7---------3-5---5-----------|--------------5-------------2---|
 
 |       |       |       |        |       |       |       |        
|--------------------------------|--------------------------------|
|--------------------------------|--------------------------------|
|--------------------------------|----------------5---5-----------|
|3---3-----------7---7-----------|5---5-----------------------2---|
 
 |       |       |       |        |       |       |       |        
|--------------------------------|--------------------------------|
|--------------------------------|--------------------------------|
|--------------------------------|----------------5---5-----------|
|3---3-----------7---7-----------|5---5---------------------------|
 
 |       |       |       |        |       |       |       |        
|--------------------------------|--------------------------------|
|--------------------------------|--------------------------------|
|--------------------------------|----------------5---5-----------|
|3---3-----------7---7-----------|5---5---------------------------|
 
 |       |       |       |        |       |       |       |        
|--------------------------------|--------------------------------|
|--------------------------------|--------------------------------|
|--------------------------------|--------------------------------|
|3---3-----------7---7-----------|5---5---------------------------|
 
 |       |        |       |       |       |        
|----------------|--------------------------------|
|----------------|--------------------------------|
|----------------|--------------------------------|
|----------------|7---7-------7-3-5---5---5---5---|
 
 |       |       |       |        |       |       |       |        
|--------------------------------|--------------------------------|
|--------------------------------|--------------------------------|
|5---5-----------5---5-----------|--------------------------------|
|--------------5-------------5---|----7-------7-3-5---5---5---5---|
 
 |       |       |       |        |       |       |       |        
|--------------------------------|--------------------------------|
|--------------------------------|--------------------------------|
|5---5---------------------------|--------------------------------|
|----------------3---2-------5---|7---7-------7-3-5---5---5---5---|
 
 |       |       |       |        |       |       |       |        
|--------------------------------|--------------------------------|
|--------------------------------|--------------------------------|
|5---5-----------5---5-----------|--------------------------------|
|--------------5-------------5---|----7-------7-3-5---5---5---5---|
 
 |       |       |       |        |       |       |       |        
|--------------------------------|--------------------------------|
|--------------------------------|--------------------------------|
|5---5---------------------------|--------------------------------|
|----------------3---2-------5---|3---3-----------7---7-----------|
 
 |       |       |       |        |       |       |       |        
|--------------------------------|--------------------------------|
|--------------------------------|--------------------------------|
|----------------5---5-----------|--------------------------------|
|5---5-----------------------2---|3---3-3-3---3-3-7---7-7-7---7-7-|
 
 |       |       |       |        |       |       |       |        
|--------------------------------|--------------------------------|
|--------------------------------|--------------------------------|
|----------------5---5-5-5---5-5-|--------------------------------|
|5---5-5-5---5-5-----------------|3---3-3-3---3-3-7---7-7-7---7-7-|
 
 |       |       |       |        |       |       |       |        
|--------------------------------|--------------------------------|
|--------------------------------|--------------------------------|
|----------------5---5-5-5-------|--------------------------------|
|5---5-5-5---5-5-------------2---|3---3-3-3---3-3-7---7-7-7---7-7-|
 
 |       |       |       |        |       |       |       |        
|--------------------------------|--------------------------------|
|--------------------------------|------------------------4-------|
|--------------------------------|--------------------------------|
|5---5---------------------------|2---------------2---2-2---------|
 
 |       |       |       |        |       |       |       |        
|--------------------------------|--------------------------------|
|--------------------------------|--------------------------------|
|9-9-9-9-7-9-9-9-7-9-9-9-9-9-9---|2---2---------------------------|
|--------------------------------|----------------2---2-----------|
 
 |       |       |       |        |       |       |       |        
|--------------------------------|--------------------------------|
|--------------------------------|--------------------------------|
|4---4---------------------------|2---2---------------------------|
|----------------2---2-----------|----------------2---2-----------|
 
 |       |       |       |        |       |       |       |        
|--------------------------------|--------------------------------|
|--------------------------------|--------------------------------|
|4---4-----------------------0---|2---2-----0h2p0-----------0-2-3-|
|----------------2---2-----------|----------------2---2-----------|
 
 |       |       |       |        |       |       |       |        
|--------------------------------|--------------------------------|
|--------------------------------|--------------------------------|
|4---4---------------------0-0-1-|2---2-----2-4-0-----------0-2-3-|
|----------4-5-4-2---2-----------|----------------2---2-----------|
 
 |       |       |       |        |       |       |       |        
|--------------------------------|--------------------------------|
|--------------------------------|--------------------------------|
|4---4-----------------------0---|2---2---------------------------|
|----------4-5-4-2---2-----------|----------------2---2-----------|
 
 |       |       |       |        |       |       |       |        
|--------------------------------|--------------------------------|
|--------------------------------|--------------------------------|
|4---4---------------------------|2---2---------------------------|
|----------------2---2-----------|----------------2---2-----------|
 
 |       |       |       |        |       |       |       |        
|--------------------------------|--------------------------------|
|--------------------------------|--------------------------------|
|4---4-----------------------0---|2---2-----0h2p0-----------0-2-3-|
|----------------2---2-----------|----------------2---2-----------|
 
 |       |       |       |        |       |       |       |        
|--------------------------------|--------------------------------|
|--------------------------------|--------------------------------|
|4---4---------------------0-0-1-|2---2-----2-4-0-----------0-2-3-|
|----------4-5-4-2---2-----------|----------------2---2-----------|
 
 |       |       |       |        |       |       |       |        
|--------------------------------|--------------------------------|
|--------------------------------|--------------------------------|
|4---4---------------------------|--------------------------0-2-3-|
|----------4-5-4-2---2-----5-5-5/|7-7-7-7-7-5-7-5-2---2-----------|
 
 |       |       |       |        |       |       |       |        
|--------------------------------|--------------------------------|
|--------------------------------|--------------------------------|
|4---4---------------------------|--------------------------0-2-3-|
|----------4-5-4-2---2-----5-5-5/|7-7-7-7-7-5-7-5-2---2-----------|
 
 |       |       |       |        |       |       |       |        
|--------------------------------|--------------------------------|
|--------------------------------|--------------------------------|
|4---4---0-----------------------|--------------------------------|
|------------4---2---------------|--------------------------------|
 
            
Hard to play? Try these video lessons and learn fast. | Correct




comments powered by Disqus
↑ Back to top | Tablatures and chords are parodies/interpretations of the original songs. You may use it for private study, scholarship, research or language learning purposes only