» » »

Midnight In Shanghai Tabs (ver.1)

Artists:  A B C D E F G H I J K L M N O P Q R S T U V W X Y Z # 

Midnight In Shanghai Tabs (ver.1)

Kaddisfly
Rating:
0/5 (0 votes)

Hard to play? Try these video lessons and learn fast.
                Kaddisfly
Did You Know People Can Fly?
Midnight in Shanghai
Drop Db


Fill 1 x3
|e|-------------8p6-6---------|
|B|-9p6-6-9~6-6-------9~6-----|
|G|-----------------------8-6-|
|D|---------------------------|
|A|---------------------------|
|E|---------------------------|

Fill 2 x1
|e|-----------------------8-6-|
|B|-9p6-6-9~6-6-------6-9-----|
|G|-------------6-8-8---------|
|D|---------------------------|
|A|---------------------------|
|E|---------------------------|

Fill 1 x1


Last Bar (almost the same as Fill 2, but with some palm-muting.)
|e|-----------------------8-6-|
|B|-9p6-6-9~6-6-------6-9-----|
|G|-------------6-8-8---------|
|D|---------------------------|
|A|---------------------------|
|E|---------------------------|
PM _____

This is all pretty damn cool. A couple notes of insight to make playing this song
Guitars are tuned down a half step, then dropped "D" tuned to C#. I find it easier to 
the
riff up high (14frt to 11 on the g string, and so on) and add the open d string. Um, 
see... I think the only effects used on this song is the ibanez echo/delay in the clean parts.

bend pull off
e------------------------------------------------|
b------------------------------14 -10------------|
g--14-11-11-14-11---11-----------10-10-14--------|
d--0-- 0--0---0---0----0-------------------------|
a------------------------------------------------|
e------------------------------------------------|

cont...

g---------------|
d-14--10--------|

if any one needs help with verse/chorus/bridge, let me know.i'll do my best. party.

|--------------------------------------------|
|-9-6-----------6-6--------------------------|
|-----8^6-8^6-----8^6-8^6---6-8-8-8^6--------|
|-------------------------------8------------|
|--------------------------------------------|
|--------------------------------------------|

OR


|--------------------------------------------------------------|
|--------------------------------------------------------------|
|-13-10---------------10-10------------------------------------|
|-------13^11-13^11-------13^11-13^11---11-13-13-13^11---------|
|---------------------------------------------13---------------|
|--------------------------------------------------------------|

Chorus: (There might be more to it)
688xxx
244322

Breakdown: (Something like)
|----------------------------------|
|----------------------------------|
|----------------------13-10-------|
|-8-8--8-8--8-8-8-8----------------|
|-8-8--8-8--8-8-8-8-11-8-----------|
|-6-6--6-6--6-6-6-6----------------|

|----------------------------------|
|----------------------------------|
|-8-8--8-8--8-8-8-8-13-10----------|
|-8-8--8-8--8-8-8-8----------------|
|-6-6--6-6--6-6-6-6-11-8-----------|
|----------------------------------|

Please if you know it come down and post it, or correct me
            
Hard to play? Try these video lessons and learn fast. | Correct




comments powered by Disqus
↑ Back to top | Tablatures and chords are parodies/interpretations of the original songs. You may use it for private study, scholarship, research or language learning purposes only