» » »

Kaddisfly, La Primera Natural Disaster Tabs (ver.1)

Artists:  A B C D E F G H I J K L M N O P Q R S T U V W X Y Z # 

La Primera Natural Disaster Tabs (ver.1)

Kaddisfly Tabs
Rating:
0/5 (0 votes)
La Primera Natural Disaster lessons Tabs too difficult? Try these video lessons and learn fast
                Kaddisfly
Buy Our Intention..We'll Buy You a Unicorn
Drop Db

kelsey (I think)

--------------------|
--------------------|
--------------------|
-12-11-7--Repeat ---|
--9--9-7------------|
--9--9-7------------|

me (these chords are tremelo strummed)

--------------|
--------------|
--------------|
-7-7-7--------|Repeat
--------------|
-4-5-7--------|

next "opening" riff is with delay

-------------------------------------------|
-12--5---3----7---8----5---5---------------|
----x---x----x---x----x---x----------------|(X's 2)
----x---x----x---x----x---x----------------|
-9-x-2-x-2-x-5-x-5-x-4-x-4-----------------|
-------------------------------------------|

verse 1

this part stays same each time.........1st & 3rd.......2nd only..........last

--------555------------------ ---------- ----------- ----------------------------------|
-5555-33333-555-3333-7777-555 ---------- --------------------55------------------------|
-0000-00000-000-0000-0000-000 ----------- -------------------00------------------------|
----------------------------- ----------- ----------- ---------------------------------|
-2222-22222-222-2222-5555-444 -5/4/5/2 0- -5/4/5/4/7- ----44---------------------------|
----------------------------- ----------- ----------- ---------------------------------|

pre chorus

kelsey ...................... We both play... ...............Me
...............................1st&3rd ... 2nd&4th

--2-2------2-2---- ----p.m.-- ------ -------- ----9-9---------9--9--------|
--0-0-3-3-0-0-3-3 -------- -------- ------------------10-10--------10-10--|
----------------- --------- ------- --------------------------------------|
----------------- --------- -------- -------------------------------------|
--2-2-2-2-2-2-2-2 ---------- -{-5-4-0-} -------9-9--9--9---9--9---9--9----|
---------------------- -0-0-000 {-5-4-0-} --------------------------------|

chorus

kelsey's part is slightly different here and I'm not 100% sure on it so I will just tab my part...
All chords/notes tremelo strummed

-----------------------------------7----------------------------------------------------7--|
--------------------------7-----5-5-------------------------------------------7-----5-5----|
-----------------------6-6---6-6-6----------------------------------------6-6---6-6-6------|
-12-------7-------5-5-5---4-4-4--12/---14/---16/---7/---9/---11---5-5-5--4-4-4-------------|
--9--12---4---7--5-5-5---4-4-4---9----------------------------------5-5-5---4-4-4----------|
--9---9---4---4---5-5-5---4-4-4---9---------------------------------5-5-5---4-4-4----------|

--X-X--X-X--X-X--X-X--X-X-X--X-X--X-X--X-X--X-X--X-X-|
--7-7--7-7--7-7--X-X--X-X-X--X-X--X-X--X-X--X-X--X-X-|
--4-4--4-4--4-4--4-4--X-4/11-6-6--6-6--6-6--6-6--6/4-|
--5-5--5-5--5-5--X-X--X-X-X--X-X--X-X--X-X--X-X--X-X-|
--5-5--5-5--5-5--2-2--X-2/9--4-4--4-4--4-4--4-4--4/2-|
--5-5--5-5--5-5--X-X--X-X-X--X-X--X-X--X-X--X-X--X-X-|


--X-X--X-X--X-X--X-X--X-X-X--X-X--X-X--X-X--X-X-X-X-|
--7-7--7-7--7-7--X-X--X-X-X--X-X--X-X--X-X--X-X-X-X-|
--4-4--4-4--4-4--4-4--X-4/11-6-6--7-7--6-6--9-9-9-9-|
--5-5--5-5--5-5--X-X--X-X-X--X-X--X-X--X-X--X-X-X-X-|
--5-5--5-5--5-5--2-2--X-2/9--4-4--5-5--4-4--7-7-7-7-|
--5-5--5-5--5-5--X-X--X-X-X--X-X--X-X--X-X--X-X-X-X-|

--------------------------------------------------------------------------|
-------------------------------------------------------5-------------3----|
----------9-------7-------6--6h9p6-------------5--5--------4---4----------|
------7-------7-------7---------------7--------3----3-------2----2--------|
-----------------------------------------------3-------3-----2------2-----|
---9----------------------------------------3---------3----2-------2------|


---------------------------------------------------------------------------|
---------------------------------------------------------------------------|
----------9-------7-------6--6h9p6---------------11------------6-7---------|
------7-------7-------7---------------7------------X-----------------------|
-----------------------------------------------12---12---------------------|
---9----------------------------------------12-----12-----7---7------------|

-----------------------X---------------------------------------|
-----------------------X----------------5-5----5-5-----5-5-----|
-----------------------X----------------4-4----4-4-----4-4-----|
--9-9-9-9-9-9-9-9-X----------------3-3----3-3-----3-3----------|
--7-7-7-7-7-7-7-7-X-7h9-9-7-5--3-3-----3-3----3-3--------------|
--9-9-9-9-9-9-9-9-X----------------3-3----3-3-----3-3----------|


-----------------------X---------------------------------------|
-----------------------X----------------5-5-----5-5-----5-5----|
-----------------------X----------------4-4-----4-4-----4-4----|
--9-9-9-9-9-9-9-9-X-------7--------3-3-----3-3-----3-3---------|
--7-7-7-7-7-7-7-7-X-7h9---7------3-3-----3-3-----3-3-----------|
--9-9-9-9-9-9-9-9-X----------------3-3------3-3-----3-3--------|
            
Submit corrections

comments powered by Disqus
↑ Back to top | Kaddisfly Tabs for La Primera Natural Disaster. Lyrics for acoustic guitar and electric guitar. Tablatures and chords are parodies/interpretations of the original songs. You may use it for private study, scholarship, research or language learning purposes only