» » »

Kaddisfly, Clouds Tabs (ver.1)

Artists:  A B C D E F G H I J K L M N O P Q R S T U V W X Y Z # 

Clouds Tabs (ver.1)

Kaddisfly Tabs
 Rating:
4/5 (4 votes)
Clouds lessons Tabs too difficult? Try these video lessons and learn fast
1
                Kaddisfly
Set Sail the Prairie
Drop Db

Listen to the music to figure the timing out

X2
------|
5--5--|
x--0--
2--0--
x--0--
4--2--

---
14-
x--
12-
x--
x--


-------
x--x---
6--6---|
4--0---|
x--x---
5--4---

---
14-
x--
12-
x--
x--


-------
x--x---
6--6---|
4--0---|
x--x---
5--4---

-----------------0-0-0--0-0----------------------|
/14--------------0-0-10-8-7----------------------|
-----------------0-7-7--7-7----------------------|
-----------------x-x-x--x-x-------7--7-777-------|
-----------------9-9-9--9-9--7-9--x--x-xxx-------|
---11-12-14--7---9-9-9--9-9-------5--4-444-------|


---0-0-0--0-0----------------------------x--x-x-----------------x-xxxxxx-x--|
---0-0-10-8-7----------------------------10/8/7-----------------x-xxxxxx-x--|
---0-7-7--7-7----------------------------x--x-x-----------------x-xxxxxx-x--|
---x-x-x--x-x-------7--7-777-7-----------x--x-x------7-7-777----x-xxxxxx-x--|
---9-9-9--9-9--7h9--x--x-xxx-4-5-7--5-55-5--5-5--7h9-x-x-xxx----x-xxxxxx-x--|
---9-9-9--9-9-------5--4-444--------5-55-5--5-5------5-4-444----x-xxxxxx-x--|

---0-0-0--0-0-----------------------------------------------|
---0-0-10-8-7-----------------------------------------------|
---0-7-7--7-7-----------------------------------------------|
---x-x-x--x-x-------7--7-77777777---------------------------|
---9-9-9--9-9--7h9--x--x-xxxxxxxx---------------------------|
---9-9-9--9-9-------5--4-44444444---------------------------|

-------
x--x---
6--6---|
4--0---|
x--x---
5--4---

---
14-
x--
12-
x--
x--

------|
5--5--|
x--0--
2--0--
x--0--
4--2--

---
14-
x--
12-
x--
x--


xx-x-xx-xx-x-xx-----------------------------------------------|
xx-x-xx-xx-x-xx-----------------------------------------------|
xx-x-xx-xx-x-xx-----------------------------------------------|
xx-x-x2-xx-x-x2-----------------------------------------------|
44-x-42-44-x-42-------------7-9-------------------------------|
44-x-4x-44-x-4x----11-12-13/7-9-------------------------------|

Bridge (not 100%)

x2
----------|
-----14---|
-----x----|
99-x-11---|
xx-x-x----|
xx-x-x----|

---------------------------------------------xxx----------|
---------------------------------------------xxx----------|
---------------------------------------------xxx----------|
---------------------------------------------xxx----------|
14-12-13-14-17----14-12-12-14-12-13-14-17-12-777----------|
16-16-15-15-15----16-16-8--16-16-15-15-15-8--777----------|


Outro (Palm Mute)

---------------------------------------------xxxxxxxxxxxxxxxx----------|
---------------------------------------------xxxxxxxxxxxxxxxx----------|
---------------------------------------------xxxxxxxxxxxxxxxx----------|
---------------------------------------------xxxxxxxxxxxxxxxx----------|
14-12-13-14-17----14-12-12-14-12-13-14-17-12-7777777777777777----------|
16-16-15-15-15----16-16-8--16-16-15-15-15-8--7777777779999999----------|
            
Submit corrections

comments powered by Disqus
↑ Back to top | Kaddisfly Tabs for Clouds. Lyrics for acoustic guitar and electric guitar. 1 Tablatures and chords are parodies/interpretations of the original songs. You may use it for private study, scholarship, research or language learning purposes only