>
 >
Which Burns More

Which Burns More Guitar Tabs

Just Surrender - Which Burns More chords, tabs, tablatures, lyrics

Guitar lessons | Add/correct | Request | Top 50 tabs Artists:  A B C D E F G H I J K L M N O P Q R S T U V W X Y Z 0-9

Which Burns More Guitar Tabs – Just Surrender

CD, Sheet music, Poster

Do you like Which Burns More? Share with your friends now
Tabs
Just Surrender

watch the video of this song


Key: Eb

Tuning: Standard EADGBe

Chords used:
G# - 466544
Bb - x13331
Cm - x35543
Eb - x68886


Intro:

Part 1: Silent x4

Guitar 1: x4
         G#                Bb                        Cm
e|-----------------|-----------------|---------------6--------6--------6-|
B|----4-------4----|-3--4----3--4----|----4-------4--------4--------4----|
G|-5-----3-5-----3-|-3-----3-3-----3-|-5-----3-5--------5--------5-------|
D|-6-------6-------|-3-------3-------|-5-------5--------5--------5-------| x2
A|-6-------6-------|-1-------1-------|-3-------3--------3--------3-------|
E|-4-------4-------|-----------------|-----------------------------------|

         G#                Bb                        Cm
e|-----------------|-----------------|-----------------------------------|
B|----4-------4----|-3--4----3--4----|----4----4--3-----4--3-----4--3----|
G|-5-----3-5-----3-|-3-----3-3-----3-|-5-----3-5-----3--5-----3--5-----3-|
D|-6-------6-------|-3-------3-------|-5-------5--------5--------5-------|
A|-6-------6-------|-1-------1-------|-3-------3--------3--------3-------|
E|-4-------4-------|-----------------|-----------------------------------|

         G#                Bb         Cm
e|-----------------|-----------------|---|
B|----4-------4----|-3--4----3--4----|---|
G|-5-----3-5-----3-|-3-----3-3-----3-|-5-|
D|-6-------6-------|-3-------3-------|-5-|
A|-6-------6-------|-1-------1-------|-3-|
E|-4-------4-------|-----------------|---|


Guitar 2: at 3rd turn
e|-11------------11--13--10--11-|
B|-----11--9-8------------------|
G|------------------------------|
D|------------------------------|
A|------------------------------|
E|------------------------------|


Part 2: Distortion

Guitar 1: Cm--G#-- x2


Cm  G#
Why Can't I Win
Cm  G#
Why Can't I win


Verse 1:
Cm(hold)            G#
  Just let yourself go
Cm(hold)      G#
  In all your glory
Cm(hold)        G#
  I'll keep you with me
Cm(hold)      G#
  In all your duty


Breakdown: Cm--Bb--Cm--Bb--Cm-Bb-Eb(hold) Bb--


Chorus 1:
Cm             Eb
  If I was the one
           G#
to say goodbye
you say that you're
Bb            Cm
sorry, you're soft
          Eb
enough to make it right
    G#       Bb
yourself to sleep
Cm            Eb
Every night without
           G#
me by your side
           Bb
coz you're nothing
  Cm
without me
       Eb
you're nothing


Verse 2:
Cm           G#
   So you're go on
repeating you
          Cm
these few words
(repeating these
few words)
           G#
coz if you want it
                  Cm
That's how bad it hurts
   G#              Cm
to say which burns more
(which burns more)
   G#              G# Bb
to say on to walk away


Guitar 2: While doing Verse 2
            Cm                       G#
e|-----------------------|-----------1-3-1-3-1-3-|
B|-----------3-4-3-4-3-4-|-----------3-4-3-4-3-4-|
G|-5-5--5-5--------------|-----------------------|
D|-5-5--5-5--------------|-6-6--6-6--------------|
A|-3-3--3-3--------------|-6-6--6-6--------------|
E|-----------------------|-4-4--4-4--------------|
            x2                       x2


Chorus 2:
Cm
  coz you were the
Eb             G#
one to say goodbye
you say that you're
Bb            Cm
sorry, you're soft
          Eb
enough to make me cry
  G#       Bb
myself to sleep
Cm            Eb
Every night without
          G#
you by my side
        Bb
coz I'm nothing
  Cm
without you
    Eb
I'm nothing


Bridge:
G#      Eb
  And I turned to you
Bb        Cm
  for the words
   Bb     G#
to say to you I got
Eb             Bb
left you and I need you
     Cm        Bb   G#
that you won't get a clue
         Eb
and your green eye they
     Bb         Cm    Bb
will tell these brown eyes
   G#            Eb
oh no!!! and I'm nothing
    Bb      Cm  Bb  G#(hold)
I'm nothing without you


Guitar 2: While doing bridge
e|-15-------18-------15-------18-------|
B|----16-------16-------16-------16----|
G|-------15-------15-------15-------15-|
D|-------------------------------------|
A|-------------------------------------|
E|-------------------------------------|


Interlude:

Guitar 1:
         G#                Bb                        Cm
e|-----------------|-----------------|---------------6--------6--------6-|
B|----4-------4----|-3--4----3--4----|----4-------4--------4--------4----|
G|-5-----3-5-----3-|-3-----3-3-----3-|-5-----3-5--------5--------5-------|
D|-6-------6-------|-3-------3-------|-5-------5--------5--------5-------|
A|-6-------6-------|-1-------1-------|-3-------3--------3--------3-------|
E|-4-------4-------|-----------------|-----------------------------------|

Guitar 2: at 3rd turn
e|-11-------------------------11--13--10--11-|
B|-----11--9-8-----8-9-11-9------------------|
G|--------------10----------8----------------|
D|-------------------------------------------|
A|-------------------------------------------|
E|-------------------------------------------|


Verse 3:
Cm(hold)            G#
  Just let yourself go
Cm(hold)      G#
  In all your glory
Cm  G#
Why Can't I Win
Cm  G#
Why Can't I win


Outro: x4
            Cm                       G#
e|-----------------------|-----------1-3-1-3-1-3-|
B|-----------3-4-3-4-3-4-|-----------3-4-3-4-3-4-|
G|-5-5--5-5--------------|-----------------------|
D|-5-5--5-5--------------|-6-6--6-6--------------|
A|-3-3--3-3--------------|-6-6--6-6--------------|
E|-----------------------|-4-4--4-4--------------|
            x2                       x2





Comments


Popular Just Surrender tabs & chords
I Can Barely Breathe Chords
Is There No Truth In Beauty? 1 Chords
She Broke My Heart, So I Broke His Jaw Chords
Through The Night Chords
Forgotten Not Forgiven 1 Tabs
You Tell A Tale Tabs
Your Life And Mine 1 Tabs
Better To Leave Ukulele
If I Wanted To Cuddle Id Buy A Teddy Bear Ukulele
So Close So Alive Ukulele


Song lyrics



↑ Back to top | Tablatures and chords are parodies/interpretations of the original songs. You may use it for private study, scholarship, research or language learning purposes only
© 2014 AZChords.com Contact us | Privacy policy | DMCA | Add/correct tabs | Request tabs | Top 50 tabs