>
 >
We're In Like Sin

We're In Like Sin Guitar Tabs

Just Surrender - We're In Like Sin chords, tabs, tablatures, lyrics

Guitar lessons | Add/correct | Request | Top 50 tabs Artists:  A B C D E F G H I J K L M N O P Q R S T U V W X Y Z 0-9

We're In Like Sin Guitar Tabs – Just Surrender

CD, Sheet music, Poster

Do you like We're In Like Sin? Share with your friends now
Tabs
Just Surrender
2007

Key: E

Tuning: Standard EADGBe

Chords used:
C#m - x46654
B -   x24442
F#m - 244322
G# -  466544
G#m - 466444
A -   x02220
Eb -  x68886


Verse 1:
C#m
i, i can see right through
             G#m
your plastic frames
you've been kissing
        A
with no shame
             G#
and your lipstick starts to
smear but you don't give a damn


Verse 2:
C#m                 B
well, we're in like sin, the way
                    A
your body starts to bend
i can't keep up when you
      G#
have started to take con-


Bass lines in Verse 2: Ska style!!!
        C#m              B
G|-------1-4-2-1---|-----------------|
D|---1-2---------2-|---4-2-1-2-1-2---|
A|-4---------------|-2-------------2-|
E|-----------------|-----------------|

        A                G#
G|---------2-1-----|-----------|
D|---2-1-2-----4-2-|---------1-|
A|-0---------------|---4-3-4---|
E|-----------------|-4---------|


Refrain:
 A
-trol and heaven and hell
             G#
don't mean a thing when
your lying in bed with me
    A
the more i kiss you
the more i touch you
    G#
you make me want to scream


Chorus:
C#m              F#m
i can't waste my time when
               B             E
everything you haves already mine
it goes to show when
A                     Eb
chills run down your spine
             G#
the more you fake it
i'll take it just as long as
i can break you to the bone


Verse 3: Still do the kickass bass lines!!!
C#m
  i can feel the way you
           B
started to breathe
                      A
your body wont let me be
the night is lost just
         G#
like our innocence


(Repeat Verse 2, Refrain and Chorus)


Lead Solo: Do chorus chords
          C#m                F#m
e|----------------------|-------------------|
B|---------9--9---------|---------9--12-9---|
G|------9-------11-9----|-11---9----------9-|
D|-11----------------11-|-------------------|
A|----------------------|-------------------|
E|----------------------|-------------------|

                 B                   E
e|---------------------------|---------------|
B|-9----9--------------------|---------------|
G|----9----11-----9--8-------|-9--9--6--9--9-|
D|-------------9--------9-11-|-9--9-----9--9-|
A|---------------------------|-7--7-----7--7-|
E|---------------------------|---------------|

              A                  Eb
e|-------------------------|-9----9-7----7--------|
B|-14-14-14-14-14-14-14-14-|----9------9----------|
G|-13-13-13-13-13-13-13-13-|---------------9--9-9-|
D|-14-14-14-14-14-14-14-14-|----------------------|
A|-12-12-12-12-12-12-12-12-|----------------------|
E|-------------------------|----------------------|

             G#
e|-----------------------------------|
B|-----------------------------------|
G|-8--8---9---11---9--11--12--13--11-|
D|-----------------------------------|
A|-----------------------------------|
E|-----------------------------------|


(Repeat Verse 1, Verse 2 and Chorus)





Comments


Popular Just Surrender tabs & chords
Our Work Of Art Bass Tabs
If I Wanted To Cuddle I'd Buy A Teddy Bear Chords
Is There No Truth In Beauty? Chords
Better To Leave Tabs
Stronger Now Tabs
Which Burns More Tabs
You Tell A Tale Tabs
Your Life And Mine 1 Tabs
Body Language And Bad Habits Ukulele
Payback Ukulele


Song lyrics



↑ Back to top | Tablatures and chords are parodies/interpretations of the original songs. You may use it for private study, scholarship, research or language learning purposes only
© 2014 AZChords.com Contact us | Privacy policy | DMCA | Add/correct tabs | Request tabs | Top 50 tabs