» » »

Just Surrender, Take Me Home Tabs (ver.1)

Artists:  A B C D E F G H I J K L M N O P Q R S T U V W X Y Z # 

Take Me Home Tabs (ver.1)

Just Surrender Tabs
 Rating:
4/5 (4 votes)
Take Me Home lessons Tabs too difficult? Try these video lessons and learn fast
                Band: Just Surrender

Tuning: Half Step Down

Intro
eb|----------------------------|
bb|----------------------------|
gb|----------------------------|
db|---555p0-555p0-555/12-------|
ab|---555p0-555p0-555/12-------|
eb|---555p0-555p0-555/12-------|

Verse
eb|------------------------------------|
bb|------------------------------------|
gb|------------------------------------|
db|---12-1212-11-1111-7-77-7-5-55-5-55-|
ab|---12-1212-12-1212-7-77-7-5-55-5-55-|
eb|---12-1212-11-1111-7-77-7-5-55-5-55-|
Palm Mute (PM)

Pre Chorus
eb|--------------------------------------|
bb|--------------------------------------|
gb|--------------------------------------|
db|---9-99-7-77-2-22-5--9-99-7-77-2-22-5-|
ab|---9-99-7-77-2-22-5--9-99-7-77-2-22-5-|
eb|---9-99-7-77-2-22-5--9-99-7-77-2-22-5-|

eb|----------------------------|
bb|----------------------------|
gb|----------------------------|
db|---555-9-777-4-555-9-777----|
ab|---555-9-777-4-555-9-777----|
eb|---555-9-777-4-555-9-777----|

Chorus
eb|---0---0---0---0------------|
bb|---0---3---0---0------------|
gb|---7---2--11---9------------|
db|---5---0---9---7------------|
ab|---5---0---9---7------------|
eb|---5---0---9---7------------|

Bridge
eb|----------------------------|
bb|----------------------------|
gb|----------------------------|
db|---999p0-999p0-999/7-5------|
ab|---999p0-999p0-999/7-5------|
eb|---999p0-999p0-999/7-5------|
"grab your keys.."

eb|------------------------------|
bb|------------------------------|
gb|------------------------------|
db|---99999999-77777777-55555555-|
ab|---99999999-77777777-55555555-|
eb|---99999999-77777777-55555555-|
PM
"Ive been stuck in these shoes..."

*can play 12th fret
eb|----------------------------------------|--------------------|
bb|----------------------------------------|--------------------|
gb|----------------------------------------|--------------------|
db|---55555555-77777777-99999999-00000000*-|-55555555-77777777~-|
ab|---55555555-77777777-99999999-00000000*-|-55555555-77777777~-|
eb|---55555555-77777777-99999999-00000000*-|-55555555-77777777~-|
"Now as you dive into this sea.."           "Ill do just fine"

Interlude
eb|----------------------------|
bb|----------------------------|
gb|----------------------------|
db|---0-7-5-9-7----------------|
ab|---0-7-5-9-7----------------|
eb|---0-7-5-9-7----------------|
"Take me home..."

Chorus
Intro 
            
Submit corrections

comments powered by Disqus
↑ Back to top | Just Surrender Tabs for Take Me Home. Lyrics for acoustic guitar and electric guitar. Tablatures and chords are parodies/interpretations of the original songs. You may use it for private study, scholarship, research or language learning purposes only