» » »

Just Surrender, Stronger Now Tabs (ver.1)

Artists:  A B C D E F G H I J K L M N O P Q R S T U V W X Y Z # 

Stronger Now Tabs (ver.1)

Just Surrender Tabs
Rating:
0/5 (0 votes)
Stronger Now lessons Tabs too difficult? Try these video lessons and learn fast
                Standard Tuning

Intro:
e---------------------------------------|
B---5-5-4-4-5-5-7-7-5-5-4-4-5-5-7-7-----|
G---6-6-6-6-6-6-6-6-6-6-6-6-6-6-6-6-----|
D---------------------------------------|
A---------------------------------------|
E---------------------------------------|

===========================================================================
Lead:
---------------------------------------|
-----------4-----7-5-----5-4-----5-----|
---6-----6-------------------------6---|
-------6-------6-------6-------6-------|
-----4-------4-------4-------4---------|
---------------------------------------|

Rhythm:
-------------------|
-------------------|
-------------------|
---7----------9----|
---7----------9----|
---5----------7----|

Lead:
--------------------------------------------------------------------|
--5-5-4-4-5-5-7-7-5-5-4-4-5-5-7-7-5-5-4-4-5-5-7-7-9-9-9-9-7-7-7-7---|
--6-6-6-6-6-6-6-6-6-6-6-6-6-6-6-6-6-6-6-6-6-6-6-6-6-6-6-6-6-6-6-6---|
--------------------------------------------------------------------|
--------------------------------------------------------------------|
--------------------------------------------------------------------|

Rhythm:
-----------------------------------------------------|
-----------------------------------------------------|
---6--6--6--4--6--6--6--4--2--2--4--4--6--6--6--4----|
---6--6--6--4--6--6--6--4--2--2--4--4--6--6--6--4----|
---4--4--4--2--4--4--4--2--0--0--2--2--4--4--4--2----|
-----------------------------------------------------|

Lead:
--------------------------------------------------------------------|
--5-5-4-4-5-5-7-7-5-5-4-4-5-5-7-7-5-5-4-4-5-5-7-7-5-5-4-4-5-5-0-0---|
--6-6-6-6-6-6-6-6-6-6-6-6-6-6-6-6-6-6-6-6-6-6-6-6-6-6-6-6-6-6-6-6---|
--------------------------------------------------------------------|
--------------------------------------------------------------------|
--------------------------------------------------------------------|

Rhythm:
-----------------------------------------------------|
-----------------------------------------------------|
---6--6--6--4--6--6--6--4--2--2--4--4--6--6--6--4----|
---6--6--6--4--6--6--6--4--2--2--4--4--6--6--6--4----|
---4--4--4--2--4--4--4--2--0--0--2--2--4--4--4--2----|
-----------------------------------------------------|

===========================================================================
"I stand alone"
Lead:
---------------------------------------|
-----------4-----7-5-----5-4-----5-----|
---6-----6-------------------------6---|
-------6-------6-------6-------6-------|
-----4-------4-------4-------4---------|
---------------------------------------|

Rhythm:                  (transition:)
----------------------|------------------------------------|
----------------------|------------------------------------|
--6----2----4---------|---6--4--2---6--4--2---6--4--2---4--|
--6----2----4---2--1--|---6--4--2---6--4--2---6--4--2---4--|
--4----0----2---2--2--|---4--2--0---4--2--0---4--2--0---2--|
----------------0--0--|------------------------------------|

===========================================================================

"Im stronger now"
Lead:
---4~~~~-----------4~~~~-----------4~~~~-----------4~~~~------------|
---6-6-4-4-----4-4-6-6-4-4-----4-4-6-6-4-4-----4-4-6-6-4-4-----4-4--|
---6-6-6-6-6-6-6-6-6-6-6-6-6-6-6-6-6-6-6-6-6-6-6-6-6-6-6-6-6-6-6-6--|
--------------------------------------------------------------------|
--------------------------------------------------------------------|
--------------------------------------------------------------------|

Rhythm:
-------------------------------------------------------------|
-------------------------------------------------------------|
---6---------------------------------------------------------|
---6----8----4----6----8----4----6----6----8----4----6----6--|
---4----8----4----6----8----4----6----6----8----4----6----6--|
--------6----2----4----6----2----4----4----6----2----4----4--|

===========================================================================

The end.
            

comments powered by Disqus
↑ Back to top | Just Surrender Tabs for Stronger Now. Lyrics for acoustic guitar and electric guitar. Tablatures and chords are parodies/interpretations of the original songs. You may use it for private study, scholarship, research or language learning purposes only