>
 >
Of All We've Known

Of All We've Known Guitar Tabs

Just Surrender - Of All We've Known chords, tabs, tablatures, lyrics

Guitar lessons | Add/correct | Request | Top 50 tabs Artists:  A B C D E F G H I J K L M N O P Q R S T U V W X Y Z 0-9

Of All We've Known Guitar Tabs – Just Surrender

CD, Sheet music, Poster

Do you like Of All We've Known? Share with your friends now
ChordsTabs
-------------------------------------------------------------------------------
-------------------------------------------------------------------------------

Rhythm Guitar: Half Step Down and Drop D
Lead Guitar: Half Step Down

Lead Guitar (0:00)
eb|----0-----------0-----0---------0-----------0-----0------------------------|
Bb|------4-4-4-------4-----4---------4-4-4-------4-----4----------------------|
Gb|--4-----4-4---------4-----4---4-----4-4---------4-----4--------------------|
Db|---------------------------------------------------------------------------|
Ab|0-------------0-------------4-------------4--------------------------------|
Eb|---------------------------------------------------------------------------|

Rythym Guitar (0:00)
eb|---------------------------------------------------------------------------|
Bb|---------------------------------------------------------------------------|
Gb|------------------------------------6-6------------------------------------|
Db|------------------------------------6-6------------------------------------|
Ab|------------------------------------4-4------------------------------------|
Db|---------------------------------------------------------------------------|

Lead Guitar (0:06) (x3)
eb|----0-----------0-----0---------0-----------0-----0------------------------|
Bb|------4-4-4-------4-----4---------4-4-4-------4-----4----------------------|
Gb|--4-----4-4---------4-----4---4-----4-4---------4-----4--------------------|
Db|---------------------------------------------------------------------------|
Ab|0-------------0-------------4-------------4--------------------------------|
Eb|---------------------------------------------------------------------------|

Rhythym Guitar (0:06) (x3)
eb|---------------------------------------------------------------------------|
Bb|---------------------------------------------------------------------------|
Gb|------------------------------------6-6------------------------------------|
Db|--------7-7-------------------------6-6------------------------------------|
Ab|--------7-7-------------------------4-4------------------------------------|
Db|--------7-7----------------------------------------------------------------|

Lead Guitar (0:25) (use pull-offs for this part)
eb|---------------------------------------------------------------------------|
Bb|----------------4242424242424242----------------424242424------------------|
Gb|5454545454545454----------------5454545454545454---------------------------|
Db|---------------------------------------------------------------------------|
Ab|---------------------------------------------------------------------------|
Eb|---------------------------------------------------------------------------|

Rythym Guitar (0:25)
eb|---------------------------------------------------------------------------|
Bb|---------------------------------------------------------------------------|
Gb|---------------------------------------------------------------------------|
Db|777777777777777799999999999999997777777777777777999999999------------------|
Ab|777777777777777799999999999999997777777777777777999999999------------------|
Db|777777777777777799999999999999997777777777777777999999999------------------|

Lead Guitar (0:37) (x2)
eb|------------7---------------7----------------------------------------------|
Bb|9---9---7-------9---9---7---------7-9-7-----9-------7-------7--------------|
Gb|--9---9---9---9---9---9---9---9-9---------9---9-8-9---8---9---9------------|
Db|---------------------------------------------------------------------------|
Ab|---------------------------------------------------------------------------|
Eb|---------------------------------------------------------------------------|

Rhythym Guitar (0:37)
eb|---------------------------------------------------------------------------|
Bb|---------------------------------------------------------------------------|
Gb|6666666666666666--------------------------------4444444422224444-----------|
Db|6666666666666666777777777777777722222222222222224444444422224444-----------|
Ab|4444444444444444777777777777777722222222222222222222222200002222-----------|
Db|----------------77777777777777772222222222222222---------------------------|

eb|---------------------------------------------------------------------------|
Bb|---------------------------------------------------------------------------|
Gb|6666666666666666--------------------------------4444444422224442-----------|
Db|6666666666666666777777777777777722222222222222224444444422224442-----------|
Ab|4444444444444444777777777777777722222222222222222222222200002220-----------|
Db|----------------77777777777777772222222222222222---------------------------|

Lead Guitar (1:05) (x2)
eb|----0-----------0-----0---------0-----------0-----0------------------------|
Bb|------4-4-4-------4-----4---------4-4-4-------4-----4----------------------|
Gb|--4-----4-4---------4-----4---4-----4-4---------4-----4--------------------|
Db|---------------------------------------------------------------------------|
Ab|0-------------0-------------4-------------4--------------------------------|
Eb|---------------------------------------------------------------------------|

Rhythym Guitar (1:05) (x2)
eb|---------------------------------------------------------------------------|
Bb|---------------------------------------------------------------------------|
Gb|------------------------------------6-6------------------------------------|
Db|--------7-7-------------------------6-6------------------------------------|
Ab|--------7-7-------------------------4-4------------------------------------|
Db|--------7-7----------------------------------------------------------------|

Lead Guitar (1:17) (pull-offs)
eb|---------------------------------------------------------------------------|
Bb|----------------4242424242424242----------------424242424------------------|
Gb|5454545454545454----------------5454545454545454---------------------------|
Db|---------------------------------------------------------------------------|
Ab|---------------------------------------------------------------------------|
Eb|---------------------------------------------------------------------------|

Rythym Guitar (1:17)
eb|---------------------------------------------------------------------------|
Bb|---------------------------------------------------------------------------|
Gb|---------------------------------------------------------------------------|
Db|777777777777777799999999999999997777777777777777999999999------------------|
Ab|777777777777777799999999999999997777777777777777999999999------------------|
Db|777777777777777799999999999999997777777777777777999999999------------------|

Lead Guitar (0:37) (x2)
eb|------------7---------------7----------------------------------------------|
Bb|9---9---7-------9---9---7---------7-9-7-----9-------7-------7--------------|
Gb|--9---9---9---9---9---9---9---9-9---------9---9-8-9---8---9---9------------|
Db|---------------------------------------------------------------------------|
Ab|---------------------------------------------------------------------------|
Eb|---------------------------------------------------------------------------|

Rhythym Guitar (0:37)
eb|---------------------------------------------------------------------------|
Bb|---------------------------------------------------------------------------|
Gb|6666666666666666--------------------------------4444444422224444-----------|
Db|6666666666666666777777777777777722222222222222224444444422224444-----------|
Ab|4444444444444444777777777777777722222222222222222222222200002222-----------|
Db|----------------77777777777777772222222222222222---------------------------|

* To Pick Slide, press the pick against the E string and grind it up the neck
eb|---------------------------------------------------------------------------|
Bb|---------------------------------------------------------------------------|
Gb|6666666666666666--------------------------------44444444-------------------|
Db|66666666666666667777777777777777222222222222222244444444-------------------|
Ab|44444444444444447777777777777777222222222222222222222222-------------------|
Db|----------------77777777777777772222222222222222---------*Pick-Slide-------|

Lead Guitar (1:54)
eb|---------------------------------------------------------------------------|
Bb|---------------------------------------------------------------------------|
Gb|131313131313131311111111-9-9-9-9131313131313131311111111-9-9-9-9-----------|
Db|-x-x-x-x-x-x-x-x-x-x-x-x-x-x-x-x-x-x-x-x-x-x-x-x-x-x-x-x-x-x-x-x-----------|
Ab|1111111111111111-9-9-9-9-7-7-7-71111111111111111-9-9-9-9-7-7-7-7-----------|
Eb|---------------------------------------------------------------------------|

eb|---------------------------------------------------------------------------|
Bb|---------------------------------------------------------------------------|
Gb|1111111111111111-9-9-9-9-8-8-8-8-6-6-6-6-5-5-5-5-8-8-8-8-9-9-9-9-----------|
Db|-x-x-x-x-x-x-x-x-x-x-x-x-x-x-x-x-x-x-x-x-x-x-x-x-x-x-x-x-x-x-x-x-----------|
Ab|-9-9-9-9-9-9-9-9-7-7-7-7-6-6-6-6-4-4-4-4-3-3-3-3-6-6-6-6-7-7-7-7-----------|
Eb|---------------------------------------------------------------------------|

Rythym Guitar (1:54)
eb|---------------------------------------------------------------------------|
Bb|---------------------------------------------------------------------------|
Gb|666-6666-66-6666-----------------------------------------------------------|
Db|666-6666-66-666677-7777-77-777799-9999-99-99996666666666666666-------------|
Ab|444-4444-44-444477-7777-77-777799-9999-99-99996666666666666666-------------|
Db|----------------77-7777-77-777799-9999-99-99996666666666666666-------------|

Lead Guitar (2:07)
eb|---------------------------------------------------------------------------|
Bb|---------------------------------------------------------------------------|
Gb|1616161616161616141414141313131316161616161616161414141413131313-----------|
Db|-x-x-x-x-x-x-x-x-x-x-x-x-x-x-x-x-x-x-x-x-x-x-x-x-x-x-x-x-x-x-x-x-----------|
Ab|1414141414141414121212121111111114141414141414141212121211111111-----------|
Eb|---------------------------------------------------------------------------|

eb|---------------------------------------------------------------------------|
Bb|---------------------------------------------------------------------------|
Gb|14141414141414141313131311111111-6-6-6-6-5-5-5-5-8-8-8-8-9-9-9-9-----------|
Db|-x-x-x-x-x-x-x-x-x-x-x-x-x-x-x-x-x-x-x-x-x-x-x-x-x-x-x-x-x-x-x-x-----------|
Ab|121212121212121211111111-9-9-9-9-4-4-4-4-3-3-3-3-6-6-6-6-7-7-7-7-----------|
Eb|---------------------------------------------------------------------------|

Rhythym Guitar (2:07)
eb|---------------------------------------------------------------------------|
Bb|---------------------------------------------------------------------------|
Gb|666-6666-66-6666-----------------------------------------------------------|
Db|666-6666-66-666677-7777-77-777799-9999-99-99996666666666666666-------------|
Ab|444-4444-44-444477-7777-77-777799-9999-99-99996666666666666666-------------|
Db|----------------77-7777-77-777799-9999-99-99996666666666666666-------------|

Lead Guitar (2:19)
eb|---------------------------------------------------------------------------|
Bb|---------------------------------------------------------------------------|
Gb|9-9-9-9-9-9-9-911--11111111111111------------------------------------------|
Db|x-x-x-x-x-x-x-x-x---x-x-x-x-x-x-x------------------------------------------|
Ab|7-7-7-7-7-7-7-7-9---9-9-9-9-9-9-9------------------------------------------|
Eb|---------------------------------------------------------------------------|

Rhythym Guitar (2:19)
eb|---------------------------------------------------------------------------|
Bb|---------------------------------------------------------------------------|
Gb|---------------------------------------------------------------------------|
Db|77-777-7-9999999-----------------------------------------------------------|
Ab|77-777-7-9999999-----------------------------------------------------------|
Db|77-777-7-9999999-----------------------------------------------------------|

Lead Guitar (2:25) (x2)
eb|------------7---------------7----------------------------------------------|
Bb|9---9---7-------9---9---7---------7-9-7-----9-------7-------7--------------|
Gb|--9---9---9---9---9---9---9---9-9---------9---9-8-9---8---9---9------------|
Db|---------------------------------------------------------------------------|
Ab|---------------------------------------------------------------------------|
Eb|---------------------------------------------------------------------------|

Rhythym Guitar (2:25)
eb|---------------------------------------------------------------------------|
Bb|---------------------------------------------------------------------------|
Gb|6666666666666666--------------------------------4444444422224444-----------|
Db|6666666666666666777777777777777722222222222222224444444422224444-----------|
Ab|4444444444444444777777777777777722222222222222222222222200002222-----------|
Db|----------------77777777777777772222222222222222---------------------------|

eb|---------------------------------------------------------------------------|
Bb|---------------------------------------------------------------------------|
Gb|6666666666666666--------------------------------44444444-------------------|
Db|666666666666666677777777777779--222222222222222244444444-------------------|
Ab|444444444444444477777777777779--222222222222222222222222-------------------|
Db|----------------77777777777779--2222222222222222---------*Pick-Slide-------|

Lead Guitar (2:50)
eb|---------------------------------------------------------------------------|
Bb|---------------------------------------------------------------------------|
Gb|131313131313131311111111-9-9-9-9131313131313131311111111-9-9-9-9-----------|
Db|-x-x-x-x-x-x-x-x-x-x-x-x-x-x-x-x-x-x-x-x-x-x-x-x-x-x-x-x-x-x-x-x-----------|
Ab|1111111111111111-9-9-9-9-7-7-7-71111111111111111-9-9-9-9-7-7-7-7-----------|
Eb|---------------------------------------------------------------------------|

eb|---------------------------------------------------------------------------|
Bb|---------------------------------------------------------------------------|
Gb|1111111111111111-9-9-9-9-8-8-8-8-6-6-6-6-5-5-5-5-8-8-8-8-9-9-9-9-----------|
Db|-x-x-x-x-x-x-x-x-x-x-x-x-x-x-x-x-x-x-x-x-x-x-x-x-x-x-x-x-x-x-x-x-----------|
Ab|-9-9-9-9-9-9-9-9-7-7-7-7-6-6-6-6-4-4-4-4-3-3-3-3-6-6-6-6-7-7-7-7-----------|
Eb|---------------------------------------------------------------------------|

Rythym Guitar (2:50)
eb|---------------------------------------------------------------------------|
Bb|---------------------------------------------------------------------------|
Gb|6666666666666666-----------------------------------------------------------|
Db|66666666666666667777777777777779999999999999996666666666666666-------------|
Ab|44444444444444447777777777777779999999999999996666666666666666-------------|
Db|----------------7777777777777779999999999999996666666666666666-------------|

Lead Guitar (3:03)
eb|---------------------------------------------------------------------------|
Bb|---------------------------------------------------------------------------|
Gb|1616161616161616141414141313131316161616161616161414141413131313-----------|
Db|-x-x-x-x-x-x-x-x-x-x-x-x-x-x-x-x-x-x-x-x-x-x-x-x-x-x-x-x-x-x-x-x-----------|
Ab|1414141414141414121212121111111114141414141414141212121211111111-----------|
Eb|---------------------------------------------------------------------------|

eb|---------------------------------------------------------------------------|
Bb|---------------------------------------------------------------------------|
Gb|14141414141414141313131311111111-6-6-6-6-5-5-5-5-8-8-8-8-9-9-9-9-----------|
Db|-x-x-x-x-x-x-x-x-x-x-x-x-x-x-x-x-x-x-x-x-x-x-x-x-x-x-x-x-x-x-x-x-----------|
Ab|121212121212121211111111-9-9-9-9-4-4-4-4-3-3-3-3-6-6-6-6-7-7-7-7-----------|
Eb|---------------------------------------------------------------------------|

Rhythym Guitar (3:03)
eb|---------------------------------------------------------------------------|
Bb|---------------------------------------------------------------------------|
Gb|6666666666666666-----------------------------------------------------------|
Db|666666666666666677777777777777799999999999999966666666666666667------------|
Ab|444444444444444477777777777777799999999999999966666666666666667------------|
Db|----------------77777777777777799999999999999966666666666666667------------|

| /  slide up
| \  slide down
| h  hammer-on
| p  pull-off
| ~  vibrato
| +  harmonic
| x  Mute note
| .  Palm Mute
===============================================================================





Comments


Popular Just Surrender tabs & chords
Forgotten Not Forgiven 2 Tabs
I Can Barely Breathe Tabs
Jukebox Memoirs Tabs
Our Work Of Art Tabs
Youd Be In Great Shape If You Ran Like Your Mouth Intro Tabs
Better To Leave Ukulele
Carried Away Ukulele
Ill Be Here Ukulele
On My Own Ukulele
Youd Be In Great Shape If You Ran Like Your Mouth Ukulele


Song lyrics



↑ Back to top | Tablatures and chords are parodies/interpretations of the original songs. You may use it for private study, scholarship, research or language learning purposes only
© 2014 AZChords.com Contact us | Privacy policy | DMCA | Add/correct tabs | Request tabs | Top 50 tabs