» » »

My Silhouette Chords (ver.1)

Artists:  A B C D E F G H I J K L M N O P Q R S T U V W X Y Z # 

My Silhouette Chords (ver.1)

Just Surrender
Rating:
0/5 (0 votes)

Hard to play? Try these video lessons and learn fast.
                Just Surrender
My Silhouette aka forgotten and not forgiven
If These streets Could Talk
2005

Key: F#

Chords used:
Ebm -  x68876
C# -   x46664
B -    x24442
C#/F - 143xxx
G#m -  466444
Bbm -  x13321


Intro: B--C#--Ebm--C#/F-F#-G#m x2 then B

Guitar 2: Pluck them fast!!!
         B                 C#                Ebm   
     F#    G#m
e|---------9-9-9-9-|---------7-7-7-7-|---------6---6---|-----------------|
B|-7-7-7-7---------|-7-7-7-7---------|-7-7-7-7---7---7-|-7---7---9-7-6-7-|
G|-----------------|-----------------|-----------------|---6---6---------|
D|-----------------|-----------------|-----------------|-----------------| x2
A|-----------------|-----------------|-----------------|-----------------|
E|-----------------|-----------------|-----------------|-----------------|
         x2                x2                x2                 x2

              B
e|----------------------------|
B|----------------------------|
G|----------------------------|
D|----4--3h4p3------4-3h4p3-1-|
A|-2-----------4-2------------|
E|----------------------------|


Verse 1:
Ebm                 B
  I'm watching your eyes move
 C#    Ebm            break  B
slowly up and down my silho-uette
      C#            Ebm
And I wonder if you get it yet
            B
This is the last time I
C#     Ebm
crawl away on these broken knees
    B                 C#            Ebm(hold)
And don't you wish it all would be okay


Guitar 2: While doing verses
     Ebm             B           C#
e|------------|-------------|-------------|
B|------------|-------------|-------------|
G|-------6----|-------------|-------------|
D|----4-----4-|----4--3h4p3-|----4--3h4p3-| x3
A|-6----------|-2-----------|-4-----------|
E|------------|-------------|-------------|
       x2

     Ebm              B                 C#          Ebm
e|------------|-2---2---1---1---|-2---2---1---1---|----|
B|------------|---2---2---2---2-|---2---2---2---2-|----|
G|-------6----|-----------------|-----------------|-8--|
D|----4-----4-|-----------------|-----------------|-8--|
A|-6----------|-----------------|-----------------|-6--|
E|------------|-----------------|-----------------|----|
      x2              x2                x2


Chorus 2:
B           C#             Ebm C#/F
  Promise me you'll forget me
    F#          G#m     B
You said as you walked away
B               C#               Ebm C#/F
  Don't hold on please let go of me
    F#         G#m     B(hold)
You make it so hard to leave


Guitar 2: In Chorus, do the intro riff


Verse 2:
Ebm          B
  And I cant breath without you
C#       Ebm            break B
here for fear Ill catch your  scent
       C#            Ebm
And we both know how bad I get I
      B          C#        Ebm
don't do well on dwell and change
                    B
Don't you know that three small
            C#             Ebm(hold)
words could make this all okay


(Repeat Chorus but in leave don't hold)


Bridge:

Growl:
    Bbm      Ebm
You promised me
       C#/F     F#    B
You'll never forget me
    Bbm      Ebm
You promised me
       C#/F     F#
You'll never forget


Interlude: do bridge chords
e|-9-----9-----9---|
B|---6-7---6-7---7-|
G|-----------------|
D|-----------------| repeat many times
A|-----------------|
E|-----------------|


then
e|---------9-9-9-9-|
B|-7-7-7-7---------|
G|-----------------|
D|-----------------|
A|-----------------|
E|-----------------|
         x2


(Repeat Chorus)
            
Hard to play? Try these video lessons and learn fast. | Correct




comments powered by Disqus
↑ Back to top | Tablatures and chords are parodies/interpretations of the original songs. You may use it for private study, scholarship, research or language learning purposes only