>
 >
Jukebox Memoirs

Jukebox Memoirs Guitar Tabs

Just Surrender - Jukebox Memoirs chords, tabs, tablatures, lyrics

Guitar lessons | Add/correct | Request | Top 50 tabs Artists:  A B C D E F G H I J K L M N O P Q R S T U V W X Y Z 0-9

Jukebox Memoirs Guitar Tabs – Just Surrender

CD, Sheet music, Poster

Do you like Jukebox Memoirs? Share with your friends now
Tabs
Just Surrender
Phoenix
2010

Key: F#

Tuning: Standard eADGBe

Chords used:
Ebm -   x68876
B -     x24442
F# -    244322
C# -    x46664
F#/Bb - x143xx


Intro:

Guitar 1:
e|-----------------------|----------------------------------------|
B|-11-------9-------9-11-|-11-------9--------11-12--11------11----|
G|-11------11------11-11-|-11------11--11-13------------13-----13-|
D|-11------11------11-11-|-11------11-----------------------------| x2
A|--9--9-9--9--9-9--9--9-|--9--9-9--9-----------------------------|
E|-----------------------|----------------------------------------|
            x2
e|-----------------------|-------------------------------------------|
B|-11-------9-------9-11-|-11-------9--------11-12--11------11-------|
G|-11------11------11-11-|-11------11--11-13------------13-----13-11-|
D|-11------11------11-11-|-11------11--------------------------------|
A|--9--9-9--9--9-9--9--9-|--9--9-9--9--------------------------------|
E|-----------------------|-------------------------------------------|
            x2


Guitar 2:
         Ebm                B                 F#                C#
e|-----------------|-----------------|-----------------|-----------------|
B|-----------------|-----------------|-----------------|-----------------|
G|-8-8-8-8-8-8-8-8-|-4-4-4-4-4-4-4-4-|-----------------|-6-6-6-6-6-6-6-6-|
D|-8-8-8-8-8-8-8-8-|-4-4-4-4-4-4-4-4-|-4-4-4-4-4-4-4-4-|-6-6-6-6-6-6-6-6-|
A|-6-6-6-6-6-6-6-6-|-2-2-2-2-2-2-2-2-|-4-4-4-4-4-4-4-4-|-4-4-4-4-4-4-4-4-|
E|-----------------|-----------------|-2-2-2-2-2-2-2-2-|-----------------|

         Ebm                B                 F#                   C#
e|-----------------|-----------------|-----------------|-6-7-9-11--9--7--9-7---|
B|-----------------|-----------------|-----------------|---------------------8-|
G|-8-8-8-8-8-8-8-8-|-4-4-4-4-4-4-4-4-|-----------------|-----------------------|
D|-8-8-8-8-8-8-8-8-|-4-4-4-4-4-4-4-4-|-4-4-4-4-4-4-4-4-|-----------------------|
A|-6-6-6-6-6-6-6-6-|-2-2-2-2-2-2-2-2-|-4-4-4-4-4-4-4-4-|-----------------------|
E|-----------------|-----------------|-2-2-2-2-2-2-2-2-|-----------------------|


Verse 1:
  Ebm              B
A song came on the jukebox
       F#                 C#
In the bar where we first met
       Ebm        B
And if only for a moment
    F#               C#
I remembered what it meant
           Ebm
To wake up tangled in
  B
between the sheets
     Ebm
With thighs all tied
  C#
between my knees
    Ebm           B
And never wanting to
               F# C#
move from that bed


Refrain:
    B
The words they rang
too true to me
And I was just
     C#
too scared to say


Chorus:
Ebm
You could be my way out
B
Save me from this whole
       F#
town I need it now
               C#
(We could just leave
this place tonight)
Ebm
Call all of your plans off
        B
There's nothing stopping
      F#
us so make it out
               C#
(We could just leave
this place tonight)
B
Close your eyes
(just take me away)
    C#
And say goodbye
(We're leaving tonight)
Ebm
You could be my way out
B
Save me from this
             F#
whole town I need it now
(We could just
C#
leave this place)


Guitar 2: While doing solo
e|-14-----14-----14-----13----|
B|----14-----14-----14-----14-|
G|----------------------------|
D|----------------------------|
A|----------------------------|
E|----------------------------|


Verse 2:
   Ebm
My head weighed
          B
down from memories
       F#            C#
Laid itself upon the bar
      Ebm
As I stare straight
      B
at my future
          F#
Seems the past
          C#
was never far
                Ebm
The dreams came rushing
        B
back in melody
    F#
The songs and words
     C#
felt safe to me
    Ebm
Now all that's left are
B              F#   C#
records on the shelf


(Repeat Refrain)
(Repeat Chorus)


Guitar Solo: Ebm-B-F#-C#- x2

Guitar 2: Solo
e|---------------------------------|
B|-----------------------------2---|
G|------3--1--3----------3--1------|
D|-4--1---------4---4--1---------4-|
A|---------------------------------|
E|---------------------------------|

e|-----------------------------------|
B|----2---2----------------------4-2-|
G|-3----3---3-1------3-1-3-4-3-1-----|
D|-----------------------------------|
A|---------------4-------------------|
E|-----------------------------------|


Bridge:
      B
I was ready
   F#                    C#
To pack my bags and run away
                  B
If you would have let me
(If you would have let me)
             Ebm   C#   B
I would have saved that day
       Ebm C# B
I know I'm to blame
        Ebm   F#/Bb B
For all these mis---takes
                C#
If I could just hear you say


(Repeat Chorus)


Outro:
Ebm B F#

We could just
C#
leave this place
tonight
(Repeat x3)

Ebm B F#

We could just
C#
leave this place


Ebm-B-F#-C#- x8, Ebm(hold)





Comments


Popular Just Surrender tabs & chords
I Said It Before Chords
If I Wanted To Cuddle I'd Buy A Teddy Bear Chords
My Silhouette Chords
Our Work Of Art 1 Chords
Something That I'm Not Chords
Stronger Now Chords
Burning Up Tabs
Your Life And Mine Tabs
Ill Be Here Ukulele
Lose Control Ukulele


Song lyrics



↑ Back to top | Tablatures and chords are parodies/interpretations of the original songs. You may use it for private study, scholarship, research or language learning purposes only
© 2014 AZChords.com Contact us | Privacy policy | DMCA | Add/correct tabs | Request tabs | Top 50 tabs