>
 >
In Your Silence

In Your Silence Guitar Tabs

Just Surrender - In Your Silence chords, tabs, tablatures, lyrics

Guitar lessons | Add/correct | Request | Top 50 tabs Artists:  A B C D E F G H I J K L M N O P Q R S T U V W X Y Z 0-9

In Your Silence Guitar Tabs – Just Surrender

CD, Sheet music, Poster

Do you like In Your Silence? Share with your friends now
ChordsTabsUkuleleUkulele v2
-------------------------------------------------------------------------------
-------------------------------------------------------------------------------

Rhythm Guitar: Half Step Down and Drop D
Lead Guitar: Half Step Down

Lead Guitar (0:00)
eb|--------4-------------------------7----------------------------------------|
Bb|------54-55---------------------54-45--------------------------------------|
Gb|-----------4-------------------------4-------------------------------------|
Db|---------------------------------------------------------------------------|
Ab|---------------------------------------------------------------------------|
Eb|---------------------------------------------------------------------------|

eb|--------4-------------------------7----------------------------------------|
Bb|------54-55---------------------54-45--------------------------------------|
Gb|-----------4-------------------------4-------------------------------------|
Db|---------------------------------------------------------------------------|
Ab|---------------------------------------------------------------------------|
Eb|---------------------------------------------------------------------------|

Rythym Guitar (0:00)
eb|---------------------------------------------------------------------------|
Bb|----------------------------------------------7-7-7------------------------|
Gb|6-6666666666--8-8-8-9-9-9---------------4-4-4-x-x-x------------------------|
Db|6-6666666666--x-x-x-x-x-x-7-7777777777--x-x-x-4-4-4------------------------|
Ab|4-4444444444--6-6-6-7-7-7-7-7777777777--2-2-2------------------------------|
Db|--------------------------7-7777777777-------------------------------------|

eb|---------------------------------------------------------------------------|
Bb|----------------------------------------------7-7-7------------------------|
Gb|6-6666666666--8-8-8-9-9-9---------------4-4-4-x-x-x------------------------|
Db|6-6666666666--x-x-x-x-x-x-7-7777777777--x-x-x-4-4-4------------------------|
Ab|4-4444444444--6-6-6-7-7-7-7-7777777777--2-2-2------------------------------|
Db|--------------------------7-7777777777-------------------------------------|

Lead Guitar (0:14)
eb|---------------------------------------------------------------------------|
Bb|---------------------------------------------------------------------------|
Gb|9889--9889--9889--9889--9-999-8-888-11-111111-11-111111--------------------|
Db|---------------------------------------------------------------------------|
Ab|---------------------------------------------------------------------------|
Eb|---------------------------------------------------------------------------|

eb|---------------------------------------------------------------------------|
Bb|---------------------------------------------------------------------------|
Gb|9889--9889--9889--9889--9-999-8-888-11-111111-11-111111--------------------|
Db|---------------------------------------------------------------------------|
Ab|---------------------------------------------------------------------------|
Eb|---------------------------------------------------------------------------|

eb|---------------------------------------------------------------------------|
Bb|---------------------------------------------------------------------------|
Gb|9889--9889--9889--9889--9-999-8-888-11-111111-11-111111--------------------|
Db|---------------------------------------------------------------------------|
Ab|---------------------------------------------------------------------------|
Eb|---------------------------------------------------------------------------|

eb|---------------------------------------------------------------------------|
Bb|---------------------------------------------------------------------------|
Gb|9889--9889--9889--9889--9-999-8-888-11-111111-11-111111--------------------|
Db|---------------------------------------------------------------------------|
Ab|---------------------------------------------------------------------------|
Eb|---------------------------------------------------------------------------|

Rhythym Guitar (0:14)
eb|---------------------------------------------------------------------------|
Bb|---------------------------------------------------------------------------|
Gb|6666--6666--6666--6666-----------------------------------------------------|
Db|6666--6666--6666--6666--7-777-7-777-7-777-7-777----------------------------|
Ab|4444--4444--4444--4444--7-777-7-777-7-777-7-777----------------------------|
Db|------------------------7-777-7-777-7-777-7-777----------------------------|

eb|---------------------------------------------------------------------------|
Bb|---------------------------------------------------------------------------|
Gb|6666--6666--6666--6666-----------------------------------------------------|
Db|6666--6666--6666--6666--7-777-7-777-7-777-7-777----------------------------|
Ab|4444--4444--4444--4444--7-777-7-777-7-777-7-777----------------------------|
Db|------------------------7-777-7-777-7-777-7-777----------------------------|

eb|---------------------------------------------------------------------------|
Bb|---------------------------------------------------------------------------|
Gb|6666--6666--6666--6666-----------------------------------------------------|
Db|6666--6666--6666--6666--7-777-7-777-7-777-7-777----------------------------|
Ab|4444--4444--4444--4444--7-777-7-777-7-777-7-777----------------------------|
Db|------------------------7-777-7-777-7-777-7-777----------------------------|

eb|---------------------------------------------------------------------------|
Bb|---------------------------------------------------------------------------|
Gb|6666--6666--6666--6666-----------------------------------------------------|
Db|6666--6666--6666--6666--7-777-7-777-7-777-7-777----------------------------|
Ab|4444--4444--4444--4444--7-777-7-777-7-777-7-777----------------------------|
Db|------------------------7-777-7-777-7-777-7-777----------------------------|

Lead Guitar (0:41)
eb|-------12------------11------------12------------11------------------------|
Bb|12------------12------------12------------12-------------------------------|
Gb|---9-9----9-9----9-9----9-9----9-9----9-9----9-9----9-9--------------------|
Db|---------------------------------------------------------------------------|
Ab|---------------------------------------------------------------------------|
Eb|---------------------------------------------------------------------------|

Rhythym Guitar (0:41)
eb|---------------------------------------------------------------------------|
Bb|---------------------------------------------------------------------------|
Gb|---------------------------------------------------------------------------|
Db|2-222-2-222-2-222-2-222----------------------------------------------------|
Ab|2-222-2-222-2-222-2-222----------------------------------------------------|
Db|2-222-2-222-2-222-2-222----------------------------------------------------|

Lead Guitar (0:44)
eb|---------------------------------------------------------------------------|
Bb|---------------------------------------------------------------------------|
Gb|9889--9889--9889--9889--9-999-8-888-11-111111-11-111111--------------------|
Db|---------------------------------------------------------------------------|
Ab|---------------------------------------------------------------------------|
Eb|---------------------------------------------------------------------------|

eb|---------------------------------------------------------------------------|
Bb|---------------------------------------------------------------------------|
Gb|9889--9889--9889--9889--9-999-8-888-11-111111-11-111111--------------------|
Db|---------------------------------------------------------------------------|
Ab|---------------------------------------------------------------------------|
Eb|---------------------------------------------------------------------------|

Rhythym Guitar (0:44)
eb|---------------------------------------------------------------------------|
Bb|---------------------------------------------------------------------------|
Gb|6666--6666--6666--6666-----------------------------------------------------|
Db|6666--6666--6666--6666--7-777-7-777-7-777-7-777----------------------------|
Ab|4444--4444--4444--4444--7-777-7-777-7-777-7-777----------------------------|
Db|------------------------7-777-7-777-7-777-7-777----------------------------|

eb|---------------------------------------------------------------------------|
Bb|---------------------------------------------------------------------------|
Gb|6666--6666--6666--6666-----------------------------------------------------|
Db|6666--6666--6666--6666--7-777-7-777-7-777-7-777----------------------------|
Ab|4444--4444--4444--4444--7-777-7-777-7-777-7-777----------------------------|
Db|------------------------7-777-7-777-7-777-7-777----------------------------|

Lead Guitar (0:58)
eb|---------------------------------------------------------------------------|
Bb|---------------------------------------------------------------------------|
Gb|9-999-8-888-9-999-8-888-9-999-8-888-9-999-8-888----------------------------|
Db|---------------------------------------------------------------------------|
Ab|---------------------------------------------------------------------------|
Eb|---------------------------------------------------------------------------|

eb|---------------------------------------------------------------------------|
Bb|---------------------------------------------------------------------------|
Gb|9-999-8-888-9-999-8-888-9-999-8-888-11-11-11-11-11-11-8-8-8-8-8-8----------|
Db|---------------------------------------------------------------------------|
Ab|---------------------------------------------------------------------------|
Eb|---------------------------------------------------------------------------|

Rhythym Guitar (0:58)
eb|---------------------------------------------------------------------------|
Bb|---------------------------------------------------------------------------|
Gb|------------------------6-666-6-666-6-666-6-666----------------------------|
Db|2-222-2-222-2-222-2-222-6-666-6-666-6-666-6-666----------------------------|
Ab|2-222-2-222-2-222-2-222-4-444-4-444-4-444-4-444----------------------------|
Db|2-222-2-222-2-222-2-222----------------------------------------------------|

eb|---------------------------------------------------------------------------|
Bb|---------------------------------------------------------------------------|
Gb|---------------------------------------------------------------------------|
Db|7-777-7-777-7-777-7-777-9-999-9-999-9-999-9-999----------------------------|
Ab|7-777-7-777-7-777-7-777-9-999-9-999-9-999-9-999----------------------------|
Db|7-777-7-777-7-777-7-777-9-999-9-999-9-999-9-999----------------------------|

Lead Guitar (1:12)
eb|-------12------------11------------12------------11------------------------|
Bb|12------------12------------12------------12-------------------------------|
Gb|---9-9----9-9----9-9----9-9----9-9----9-9----9-9----9-9--------------------|
Db|---------------------------------------------------------------------------|
Ab|---------------------------------------------------------------------------|
Eb|---------------------------------------------------------------------------|

eb|-------12------------11------------12------------11------------------------|
Bb|12------------12------------12------------12-------------------------------|
Gb|---9-9----9-9----9-9----9-9----9-9----9-9----9-9----9-9--------------------|
Db|---------------------------------------------------------------------------|
Ab|---------------------------------------------------------------------------|
Eb|---------------------------------------------------------------------------|

eb|-------12------------11------------12------------11------------------------|
Bb|12------------12------------12------------12-------------------------------|
Gb|---9-9----9-9----9-9----9-9----9-9----9-9----9-9----9-9--------------------|
Db|---------------------------------------------------------------------------|
Ab|---------------------------------------------------------------------------|
Eb|---------------------------------------------------------------------------|

eb|-------12------------11------------12------------11------------------------|
Bb|12------------12------------12------------12-------------------------------|
Gb|---9-9----9-9----9-9----9-9----9-9----9-9----9-9----9-9--------------------|
Db|---------------------------------------------------------------------------|
Ab|---------------------------------------------------------------------------|
Eb|---------------------------------------------------------------------------|

Rhythym Guitar (1:12)
eb|---------------------------------------------------------------------------|
Bb|---------------------------------------------------------------------------|
Gb|------------------------6-666-6-666-6-666-6-666----------------------------|
Db|2-222-2-222-2-222-2-222-6-666-6-666-6-666-6-666----------------------------|
Ab|2-222-2-222-2-222-2-222-4-444-4-444-4-444-4-444----------------------------|
Db|2-222-2-222-2-222-2-222----------------------------------------------------|

eb|---------------------------------------------------------------------------|
Bb|---------------------------------------------------------------------------|
Gb|---------------------------------------------------------------------------|
Db|7-777-7-777-7-777-7-777-9-999-9-999-9-999-9-999----------------------------|
Ab|7-777-7-777-7-777-7-777-9-999-9-999-9-999-9-999----------------------------|
Db|7-777-7-777-7-777-7-777-9-999-9-999-9-999-9-999----------------------------|

Lead Guitar (1:26)
eb|---------------------------------------------------------------------------|
Bb|---------------------------------------------------------------------------|
Gb|9889--9889--9889--9889--9-999-8-888-11-111111-11-111111--------------------|
Db|---------------------------------------------------------------------------|
Ab|---------------------------------------------------------------------------|
Eb|---------------------------------------------------------------------------|

eb|---------------------------------------------------------------------------|
Bb|---------------------------------------------------------------------------|
Gb|9889--9889--9889--9889--9-999-8-888-11-111111-11-111111--------------------|
Db|---------------------------------------------------------------------------|
Ab|---------------------------------------------------------------------------|
Eb|---------------------------------------------------------------------------|

Rhythym Guitar (1:26)
eb|---------------------------------------------------------------------------|
Bb|---------------------------------------------------------------------------|
Gb|6666--6666--6666--6666-----------------------------------------------------|
Db|6666--6666--6666--6666--7-777-7-777-7-777-7-777----------------------------|
Ab|4444--4444--4444--4444--7-777-7-777-7-777-7-777----------------------------|
Db|------------------------7-777-7-777-7-777-7-777----------------------------|

eb|---------------------------------------------------------------------------|
Bb|---------------------------------------------------------------------------|
Gb|6666--6666--6666--6666-----------------------------------------------------|
Db|6666--6666--6666--6666--7-777-7-777-7-777-7-777----------------------------|
Ab|4444--4444--4444--4444--7-777-7-777-7-777-7-777----------------------------|
Db|------------------------7-777-7-777-7-777-7-777----------------------------|

Lead Guitar (1:39)
eb|------------------------------------------------------------------------------|
Bb|--5-4-----5-4--5-4--5-4----5-4--5-4----5-4----5-4--5-4---5-4---5-4---5-4---5-4|
Gb|-----4-------4---------4------4-----------4------4----------------------------|
Db|------------------------------------------------------------------------------|
Ab|4-------4----------0------0---------4-------4----------0-----0-----0-----0----|
Eb|------------------------------------------------------------------------------|

Rhythym Guitar (1:39)
eb|------------------------------------------------------------------------------|
Bb|------------------------------------------------------------------------------|
Gb|------------------------------------------------------------------------------|
Db|-------------------------------------------------------7-7-7-7-7-7-7-7-7-7-7-7|
Ab|-------------------------------------------------------7-7-7-7-7-7-7-7-7-7-7-7|
Db|-------------------------------------------------------7-7-7-7-7-7-7-7-7-7-7-7|
                                                          . . . . . . . . . . . .

Lead Guitar (1:53)
eb|---------------------------------------------------------------------------|
Bb|---------------------------------------------------------------------------|
Gb|9-999-8-888-9-999-8-888-9-999-8-888-9-999-8-888----------------------------|
Db|---------------------------------------------------------------------------|
Ab|---------------------------------------------------------------------------|
Eb|---------------------------------------------------------------------------|

eb|---------------------------------------------------------------------------|
Bb|---------------------------------------------------------------------------|
Gb|9-999-8-888-9-999-8-888-9-999-8-888-11-11-11-11-11-11-8-8-8-8-8-8----------|
Db|---------------------------------------------------------------------------|
Ab|---------------------------------------------------------------------------|
Eb|---------------------------------------------------------------------------|

Rhythym Guitar (1:53)
eb|---------------------------------------------------------------------------|
Bb|---------------------------------------------------------------------------|
Gb|------------------------6-666-6-666-6-666-6-666----------------------------|
Db|2-222-2-222-2-222-2-222-6-666-6-666-6-666-6-666----------------------------|
Ab|2-222-2-222-2-222-2-222-4-444-4-444-4-444-4-444----------------------------|
Db|2-222-2-222-2-222-2-222----------------------------------------------------|

eb|---------------------------------------------------------------------------|
Bb|---------------------------------------------------------------------------|
Gb|---------------------------------------------------------------------------|
Db|7-777-7-777-7-777-7-777-9-999-9-999-9-999-9-999----------------------------|
Ab|7-777-7-777-7-777-7-777-9-999-9-999-9-999-9-999----------------------------|
Db|7-777-7-777-7-777-7-777-9-999-9-999-9-999-9-999----------------------------|

Lead Guitar (2:07)
eb|-------12------------11------------12------------11------------------------|
Bb|12------------12------------12------------12-------------------------------|
Gb|---9-9----9-9----9-9----9-9----9-9----9-9----9-9----9-9--------------------|
Db|---------------------------------------------------------------------------|
Ab|---------------------------------------------------------------------------|
Eb|---------------------------------------------------------------------------|

eb|-------12------------11------------12------------11------------------------|
Bb|12------------12------------12------------12-------------------------------|
Gb|---9-9----9-9----9-9----9-9----9-9----9-9----9-9----9-9--------------------|
Db|---------------------------------------------------------------------------|
Ab|---------------------------------------------------------------------------|
Eb|---------------------------------------------------------------------------|

eb|-------12------------11------------12------------11------------------------|
Bb|12------------12------------12------------12-------------------------------|
Gb|---9-9----9-9----9-9----9-9----9-9----9-9----9-9----9-9--------------------|
Db|---------------------------------------------------------------------------|
Ab|---------------------------------------------------------------------------|
Eb|---------------------------------------------------------------------------|

eb|-------12------------11------------12------------11------------------------|
Bb|12------------12------------12------------12-------------------------------|
Gb|---9-9----9-9----9-9----9-9----9-9----9-9----9-9----9-9--------------------|
Db|---------------------------------------------------------------------------|
Ab|---------------------------------------------------------------------------|
Eb|---------------------------------------------------------------------------|

Rhythym Guitar (2:07)
eb|---------------------------------------------------------------------------|
Bb|---------------------------------------------------------------------------|
Gb|------------------------6-666-6-666-6-666-6-666----------------------------|
Db|2-222-2-222-2-222-2-222-6-666-6-666-6-666-6-666----------------------------|
Ab|2-222-2-222-2-222-2-222-4-444-4-444-4-444-4-444----------------------------|
Db|2-222-2-222-2-222-2-222----------------------------------------------------|

eb|---------------------------------------------------------------------------|
Bb|---------------------------------------------------------------------------|
Gb|---------------------------------------------------------------------------|
Db|7-777-7-777-7-777-7-777-9-999-9-999-9-999-9-999----------------------------|
Ab|7-777-7-777-7-777-7-777-9-999-9-999-9-999-9-999----------------------------|
Db|7-777-7-777-7-777-7-777-9-999-9-999-9-999-9-999----------------------------|

Lead Guitar (2:21)
eb|--------4-------------------------7----------------------------------------|
Bb|------54-55---------------------54-45--------------------------------------|
Gb|-----------4-------------------------4-------------------------------------|
Db|---------------------------------------------------------------------------|
Ab|---------------------------------------------------------------------------|
Eb|---------------------------------------------------------------------------|

eb|--------4-------------------------7----------------------------------------|
Bb|------54-55---------------------54-45--------------------------------------|
Gb|-----------4-------------------------4-------------------------------------|
Db|---------------------------------------------------------------------------|
Ab|---------------------------------------------------------------------------|
Eb|---------------------------------------------------------------------------|

Rythym Guitar (2:21)
eb|---------------------------------------------------------------------------|
Bb|----------------------------------------------7-7-7------------------------|
Gb|6-6666666666--8-8-8-9-9-9---------------4-4-4-x-x-x------------------------|
Db|6-6666666666--x-x-x-x-x-x-7-7777777777--x-x-x-4-4-4------------------------|
Ab|4-4444444444--6-6-6-7-7-7-7-7777777777--2-2-2------------------------------|
Db|--------------------------7-7777777777-------------------------------------|

eb|---------------------------------------------------------------------------|
Bb|----------------------------------------------7-7-7------------------------|
Gb|6-6666666666--8-8-8-9-9-9---------------4-4-4-x-x-x------------------------|
Db|6-6666666666--x-x-x-x-x-x-7-7777777777--x-x-x-4-4-4------------------------|
Ab|4-4444444444--6-6-6-7-7-7-7-7777777777--2-2-2------------------------------|
Db|--------------------------7-7777777777-------------------------------------|

Lead Guitar (2:34)
eb|---------------------------------------------------------------------------|
Bb|---------------------------------------------------------------------------|
Gb|---------------------------------------------------------------------------|
Db|2--------------------------------------------------------------------------|
Ab|2--------------------------------------------------------------------------|
Eb|0-let-this-note-ring-------------------------------------------------------|

Rhythym Guitar (2:34)
eb|---------------------------------------------------------------------------|
Bb|---------------------------------------------------------------------------|
Gb|------------------------6-66666-66666-66666-6666---------------------------|
Db|2-22222-22222-22222-22226-66666-66666-66666-66667--------------------------|
Ab|2-22222-22222-22222-22224-44444-44444-44444-44447--------------------------|
Db|2-22222-22222-22222-2222------------------------7--------------------------|
   . ..... ..... ..... ..... ..... ..... ..... .....

eb|---------------------------------------------------------------------------|
Bb|---------------------------------------------------------------------------|
Gb|---------------------------------------------------------------------------|
Db|77777-77777-77777-77779-99999-99999-99999-9999-----------------------------|
Ab|77777-77777-77777-77779-99999-99999-99999-9999-----------------------------|
Db|77777-77777-77777-77779-99999-99999-99999-9999-----------------------------|
   ..... ..... ..... ..... ..... ..... ..... ....

Lead Guitar (2:48)
eb|-------12------------11------------12------------11------------------------|
Bb|12------------12------------12------------12-------------------------------|
Gb|---9-9----9-9----9-9----9-9----9-9----9-9----9-9----9-9--------------------|
Db|---------------------------------------------------------------------------|
Ab|---------------------------------------------------------------------------|
Eb|---------------------------------------------------------------------------|

eb|-------12------------11------------12------------11------------------------|
Bb|12------------12------------12------------12-------------------------------|
Gb|---9-9----9-9----9-9----9-9----9-9----9-9----9-9----9-9--------------------|
Db|---------------------------------------------------------------------------|
Ab|---------------------------------------------------------------------------|
Eb|---------------------------------------------------------------------------|

eb|-------12------------11------------12------------11------------------------|
Bb|12------------12------------12------------12-------------------------------|
Gb|---9-9----9-9----9-9----9-9----9-9----9-9----9-9----9-9--------------------|
Db|---------------------------------------------------------------------------|
Ab|---------------------------------------------------------------------------|
Eb|---------------------------------------------------------------------------|

eb|---------------------------------------------------------------------------|
Bb|12------------12------------12------------12-------------------------------|
Gb|---9-8-9-8-9-----9-8-9-8-9-----9-8-9-8-9-----------------------------------|
Db|---------------------------------------------------------------------------|
Ab|---------------------------------------------------------------------------|
Eb|---------------------------------------------------------------------------|

Rhythym Guitar (2:48)
eb|---------------------------------------------------------------------------|
Bb|---------------------------------------------------------------------------|
Gb|------------------------666666666666666666666666---------------------------|
Db|2222222222222222222222226666666666666666666666667--------------------------|
Ab|2222222222222222222222224444444444444444444444447--------------------------|
Db|222222222222222222222222------------------------7--------------------------|
   .................................................

eb|---------------------------------------------------------------------------|
Bb|---------------------------------------------------------------------------|
Gb|---------------------------------------------------------------------------|
Db|77777777777777777777779-9-9-9-9-9-9----------------------------------------|
Ab|77777777777777777777779-9-9-9-9-9-9----------------------------------------|
Db|77777777777777777777779-9-9-9-9-9-9----------------------------------------|
   ....................... . . . . . .

Lead Guitar (3:02)
eb|---------------------------------------------------------------------------|
Bb|---------------------------------------------------------------------------|
Gb|9-999-8-888-9-999-8-888-9-999-8-888-9-999-8-888----------------------------|
Db|---------------------------------------------------------------------------|
Ab|---------------------------------------------------------------------------|
Eb|---------------------------------------------------------------------------|

eb|---------------------------------------------------------------------------|
Bb|---------------------------------------------------------------------------|
Gb|9-999-8-888-9-999-8-888-9-999-8-888-11-11-11-11-11-11-8-8-8-8-8-8----------|
Db|---------------------------------------------------------------------------|
Ab|---------------------------------------------------------------------------|
Eb|---------------------------------------------------------------------------|

Rhythym Guitar (3:02)
eb|---------------------------------------------------------------------------|
Bb|---------------------------------------------------------------------------|
Gb|------------------------6-666-6-666-6-666-6-666----------------------------|
Db|2-222-2-222-2-222-2-222-6-666-6-666-6-666-6-666----------------------------|
Ab|2-222-2-222-2-222-2-222-4-444-4-444-4-444-4-444----------------------------|
Db|2-222-2-222-2-222-2-222----------------------------------------------------|

eb|---------------------------------------------------------------------------|
Bb|---------------------------------------------------------------------------|
Gb|---------------------------------------------------------------------------|
Db|7-777-7-777-7-777-7-777-9-999-9-999-9-999-9-999----------------------------|
Ab|7-777-7-777-7-777-7-777-9-999-9-999-9-999-9-999----------------------------|
Db|7-777-7-777-7-777-7-777-9-999-9-999-9-999-9-999----------------------------|

Lead Guitar (3:15)
eb|-------12------------11------------12------------11------------------------|
Bb|12------------12------------12------------12-------------------------------|
Gb|---9-9----9-9----9-9----9-9----9-9----9-9----9-9----9-9--------------------|
Db|---------------------------------------------------------------------------|
Ab|---------------------------------------------------------------------------|
Eb|---------------------------------------------------------------------------|

eb|-------12------------11------------12------------11------------------------|
Bb|12------------12------------12------------12-------------------------------|
Gb|---9-9----9-9----9-9----9-9----9-9----9-9----9-9----9-9--------------------|
Db|---------------------------------------------------------------------------|
Ab|---------------------------------------------------------------------------|
Eb|---------------------------------------------------------------------------|

eb|-------12------------11------------12------------11------------------------|
Bb|12------------12------------12------------12-------------------------------|
Gb|---9-9----9-9----9-9----9-9----9-9----9-9----9-9----9-9--------------------|
Db|---------------------------------------------------------------------------|
Ab|---------------------------------------------------------------------------|
Eb|---------------------------------------------------------------------------|

eb|-------12------------11------------12------------11------------------------|
Bb|12------------12------------12------------12-------------------------------|
Gb|---9-9----9-9----9-9----9-9----9-9----9-9----9-9----9-9--------------------|
Db|---------------------------------------------------------------------------|
Ab|---------------------------------------------------------------------------|
Eb|---------------------------------------------------------------------------|

Rhythym Guitar (3:15)
eb|---------------------------------------------------------------------------|
Bb|---------------------------------------------------------------------------|
Gb|------------------------6-666-6-666-6-666-6-666----------------------------|
Db|2-222-2-222-2-222-2-222-6-666-6-666-6-666-6-666----------------------------|
Ab|2-222-2-222-2-222-2-222-4-444-4-444-4-444-4-444----------------------------|
Db|2-222-2-222-2-222-2-222----------------------------------------------------|

eb|---------------------------------------------------------------------------|
Bb|---------------------------------------------------------------------------|
Gb|---------------------------------------------------------------------------|
Db|7-777-7-777-7-777-7-777-9-999-9-999-9-999-9-999----------------------------|
Ab|7-777-7-777-7-777-7-777-9-999-9-999-9-999-9-999----------------------------|
Db|7-777-7-777-7-777-7-777-9-999-9-999-9-999-9-999----------------------------|

Lead Guitar (3:29)
eb|--------4-------------------------7----------------------------------------|
Bb|------54-55---------------------54-45--------------------------------------|
Gb|-----------4-------------------------4-------------------------------------|
Db|---------------------------------------------------------------------------|
Ab|---------------------------------------------------------------------------|
Eb|---------------------------------------------------------------------------|

eb|--------4------------------------------------------------------------------|
Bb|------54-55----------------------------------------------------------------|
Gb|-----------4---------------------------------------------------------------|
Db|---------------------------------------------------------------------------|
Ab|---------------------------------------------------------------------------|
Eb|---------------------------------------------------------------------------|

Rythym Guitar (3:29)
eb|---------------------------------------------------------------------------|
Bb|----------------------------------------------7-7-7------------------------|
Gb|6-6666666666--8-8-8-9-9-9---------------4-4-4-x-x-x------------------------|
Db|6-6666666666--x-x-x-x-x-x-7-7777777777--x-x-x-4-4-4------------------------|
Ab|4-4444444444--6-6-6-7-7-7-7-7777777777--2-2-2------------------------------|
Db|--------------------------7-7777777777-------------------------------------|

eb|---------------------------------------------------------------------------|
Bb|---------------------------------------------------------------------------|
Gb|6-6666666666--8-8-8-9-9-9--------------------------------------------------|
Db|6-6666666666--x-x-x-x-x-x-7------------------------------------------------|
Ab|4-4444444444--6-6-6-7-7-7-7------------------------------------------------|
Db|--------------------------7------------------------------------------------|

| /  slide up
| \  slide down
| h  hammer-on
| p  pull-off
| ~  vibrato
| +  harmonic
| x  Mute note
| .  Palm Mute
===============================================================================





Comments


Popular Just Surrender tabs & chords
Is There No Truth In Beauty? 1 Chords
Something That I'm Not Chords
Crazy Tabs
Forgotten Not Forgiven 2 Tabs
Jukebox Memoirs Tabs
Youd Be In Great Shape If You Ran Like Your Mouth Intro Tabs
Your Life And Mine Tabs
Carried Away Ukulele
If I Wanted To Cuddle Id Buy A Teddy Bear Ukulele
Your Life And Mine Ukulele


Song lyrics



↑ Back to top | Tablatures and chords are parodies/interpretations of the original songs. You may use it for private study, scholarship, research or language learning purposes only
© 2014 AZChords.com Contact us | Privacy policy | DMCA | Add/correct tabs | Request tabs | Top 50 tabs