» » »

Intro Tabs (ver.1)

Artists:  A B C D E F G H I J K L M N O P Q R S T U V W X Y Z # 

Intro Tabs (ver.1)

Just Surrender
Rating:
0/5 (0 votes)

Hard to play? Try these video lessons and learn fast.
                Just Surrender
Phoenix
2010

Tuning: Standard EADGBe

Key: B

Chords used:
G#m - 466444
E -   022100
B -   x24442
F# -  244322
C#m - x46654


Guitar 1:
G#m--C#m-B-F#-       E-------------|F#
e|--------------|------------------|
B|-4-----2------|-2-------4-2-0-2--|
G|----4-----4-3-|----4-3-----------|
D|--------------|------------------|
A|--------------|------------------|
E|--------------|------------------|
        x3

Guitar 1: G#m Palm muted

Guitar 3:
e|-------------------------------------------------------|
B|-------------------------------------------------------|
G|------------------------------------------------4--3h4-|
D|-4-6--4-6--4-6--4-6-9-4-8-4--4-6--4-6--4-6--4-6--------| x3
A|-------------------------------------------------------|
E|-------------------------------------------------------|


Guitar 1: E--F#

Guitar 3:
e|--------------------------------------------------------|
B|--------------------------------------------------------|
G|--------------------------------------------------------|
D|------------------------------------------------------1-|
A|---2----2----2----2--2-1-2----1----1----1----1--2-1-2---|
E|-0----0----0----0-----------2----2----2----2------------|


Guitar 2:
e|---------|
B|---------|
G|-4--4--4-|
D|---------|
A|---------|
E|---------|


Then the beat wil lchange from Standard 4/4 to 3/4


Guitar 1: E--G#m-- x2

Guitar 2: x2
e|-------------------6--6--6----------|
B|----------4--4--4-----------4--4--4-|
G|-4--4--4----------------------------|
D|------------------------------------|
A|------------------------------------|
E|------------------------------------|

e|-------------------6--6--6--7--7--7-|
B|----------4--4--4-------------------|
G|-4--4--4----------------------------|
D|------------------------------------|
A|------------------------------------|
E|------------------------------------|

Guitar 3:
e|--------------------------------------------|
B|-----2-4-2------2-4-2------2-4-2------4-5-4-|
G|-4-1--------4-1--------4-1--------4-6-------|
D|--------------------------------------------|
A|--------------------------------------------|
E|--------------------------------------------|

e|----------------------------------0-2-4-2-4-|
B|-----2-4-2------2-4-2------2-4-2------------|
G|-4-1--------4-1--------4-1------------------|
D|--------------------------------------------|
A|--------------------------------------------|
E|--------------------------------------------|


Outro:

Guitar 1/Guitar 2: G#m--E-G#m--E-B- x2, C#m(hold)

Guitar 3: Guitar Effects
e|-4--4--4--4---4--4--4--4-------|
B|------------4------------0-----|
G|---------------------------4-6-|
D|-----------------------------6-|
A|-----------------------------4-|
E|-------------------------------|
            
Hard to play? Try these video lessons and learn fast. | Correct




comments powered by Disqus
↑ Back to top | Tablatures and chords are parodies/interpretations of the original songs. You may use it for private study, scholarship, research or language learning purposes only