>
 >
I Can Barely Breathe

I Can Barely Breathe Guitar Tabs

Just Surrender - I Can Barely Breathe chords, tabs, tablatures, lyrics

Guitar lessons | Add/correct | Request | Top 50 tabs Artists:  A B C D E F G H I J K L M N O P Q R S T U V W X Y Z 0-9

I Can Barely Breathe Guitar Tabs – Just Surrender

CD, Sheet music, Poster

Do you like I Can Barely Breathe? Share with your friends now
ChordsChords v2TabsUkulele
-------------------------------------------------------------------------------
-------------------------------------------------------------------------------

Rhythm Guitar: Half Step Down and Drop D
Lead Guitar: Half Step Down

I'm almost 100% sure about this tab. The only part I'm not quite sure of is the
lead guitarist's riff that starts at 2:38. Other than that its all pretty much
right. And this tab does seem kind of long, but there are just a couple riffs
that keep repeating. I put them in just to be thorough. Once you learn them you
will know when to put them into the song.

Rhythm Guitar (0:11)
eb|---------------------------------------------------------------------------|
Bb|---------------------------------------------------------------------------|
Gb|9-9-9-9------11-11-11-11-11-----11-11-11-11-----11-11-11-----11-11-11------|
Db|--------555--x--x--x--x--x--77--x--x--x--x--999-x--x--x--999-x--x--x--9979-|
Ab|--------555--9--9--9--9--9--77--9--9--9--9--999-9--9--9--999-9--9--9--9979-|
Db|--------555-----------------77--------------999----------999----------9979-|

eb|---------------------------------------------------------------------------|
Bb|---------------------------------------------------------------------------|
Gb|-----11-11-11-11-11-----11-11-11-11-----11-11-11-----11-11-11--------------|
Db|555--x--x--x--x--x--77--x--x--x--x--999-x--x--x--999-x--x--x--9979---------|
Ab|555--9--9--9--9--9--77--9--9--9--9--999-9--9--9--999-9--9--9--9979---------|
Db|555-----------------77--------------999----------999----------9979---------|

Lead Guitar (0:18)
eb|---------------------------------------------------------------------------|
Bb|--------7---------------7---------------7----------------------------------|
Gb|----7-------7---9---7-------7---9---7-------7---9---7---9---6-7-6----------|
Db|7-9---9---9---9---9---9---9---9---9---9---9---9---9---9---9-------7--------|
Ab|---------------------------------------------------------------------------|
Eb|---------------------------------------------------------------------------|

Rythym Guitar (0:25)
eb|---------------------------------------------------------------------------|
Bb|---------------------------------------------------------------------------|
Gb|---------------------------------------------------------------------------|
Db|55555-5-5-5-555555555-5-5-5-5-7799979-9-9-9-999799979-9-9-9-9979-----------|
Ab|55555-5-5-5-555555555-5-5-5-5-7799979-9-9-9-999799979-9-9-9-9979-----------|
Db|55555-5-5-5-555555555-5-5-5-5-7799979-9-9-9-999799979-9-9-9-9979-----------|

Lead Guitar (0:25)
eb|555-5--5-5----------555-5--5-5----------555-5--5-5----------555-5--5-5---------|
Bb|---7----7---7--575-----7----7---7--575-----7----7---7--575-----7----7---7--575-|
Gb|------------------7-------------------7-------------------7-------------------7|
Db|-------------------------------------------------------------------------------|
Ab|-------------------------------------------------------------------------------|
Eb|-------------------------------------------------------------------------------|

Rhythym Guitar (0:39)
eb|---------------------------------------------------------------------------|
Bb|---------------------------------------------------------------------------|
Gb|---------------------------------------------------------------------------|
Db|55555555555555555555555555555--7-7-----------------------------------------|
Ab|55555555555555555555555555555--7-7-----------------------------------------|
Db|55555555555555555555555555555--7-7-----------------------------------------|
   .............................

Lead Guitar (0:39)
eb|555---555-------555---555--------------------------------------------------|
Bb|---777---7777777---777---777-----------------------------------------------|
Gb|---------------------------------------------------------------------------|
Db|---------------------------------------------------------------------------|
Ab|---------------------------------------------------------------------------|
Eb|---------------------------------------------------------------------------|
   ............................

Rhythym Guitar (0:45)
eb|---------------------------------------------------------------------------|
Bb|---------------------------------------------------------------------------|
Gb|------6------666666------9------999999-------------------------------------|
Db|999-----9-9---------999--x-9-9--xxxxxx-------------------------------------|
Ab|999-----9-9---------999--7-9-9--777777-------------------------------------|
Db|999-----9-9---------999----9-9---------------------------------------------|

Lead Guitar (0:52)
eb|555---555-------555---555--------------------------------------------------|
Bb|---777---7777777---777---777-----------------------------------------------|
Gb|----------------------------9999-------------------------------------------|
Db|---------------------------------------------------------------------------|
Ab|---------------------------------------------------------------------------|
Eb|---------------------------------------------------------------------------|
   ............................

Rhythym Guitar (0:59)
eb|---------------------------------------------------------------------------|
Bb|---------------------------------------------------------------------------|
Gb|-----11-11-11-11-11-----11-11-11-11-----11-11-11-----11-11-11--------------|
Db|555--x--x--x--x--x--77--x--x--x--x--999-x--x--x--999-x--x--x--9979---------|
Ab|555--9--9--9--9--9--77--9--9--9--9--999-9--9--9--999-9--9--9--9979---------|
Db|555-----------------77--------------999----------999----------9979---------|

eb|---------------------------------------------------------------------------|
Bb|---------------------------------------------------------------------------|
Gb|-----11-11-11-11-11-----11-11-11-11-----11-11-11-----11-11-11--------------|
Db|555--x--x--x--x--x--77--x--x--x--x--999-x--x--x--999-x--x--x--9979---------|
Ab|555--9--9--9--9--9--77--9--9--9--9--999-9--9--9--999-9--9--9--9979---------|
Db|555-----------------77--------------999----------999----------9979---------|

Lead Guitar (1:04)
eb|---------------------------------------------------------------------------|
Bb|--------7---------------7---------------7----------------------------------|
Gb|----7-------7---9---7-------7---9---7-------7---9---7---9---6-7-6----------|
Db|7-9---9---9---9---9---9---9---9---9---9---9---9---9---9---9-------7--------|
Ab|---------------------------------------------------------------------------|
Eb|---------------------------------------------------------------------------|

Rythym Guitar (1:12)
eb|---------------------------------------------------------------------------|
Bb|---------------------------------------------------------------------------|
Gb|---------------------------------------------------------------------------|
Db|55555-5-5-5-555555555-5-5-5-5-7799979-9-9-9-999799979-9-9-9-9979-----------|
Ab|55555-5-5-5-555555555-5-5-5-5-7799979-9-9-9-999799979-9-9-9-9979-----------|
Db|55555-5-5-5-555555555-5-5-5-5-7799979-9-9-9-999799979-9-9-9-9979-----------|

Lead Guitar (1:12)
eb|555-5--5-5----------555-5--5-5----------555-5--5-5----------555-5--5-5---------|
Bb|---7----7---7--575-----7----7---7--575-----7----7---7--575-----7----7---7--575-|
Gb|------------------7-------------------7-------------------7-------------------7|
Db|-------------------------------------------------------------------------------|
Ab|-------------------------------------------------------------------------------|
Eb|-------------------------------------------------------------------------------|

Rhythym Guitar (1:25)
eb|---------------------------------------------------------------------------|
Bb|---------------------------------------------------------------------------|
Gb|---------------------------------------------------------------------------|
Db|55555555555555555555555555555--7-7-----------------------------------------|
Ab|55555555555555555555555555555--7-7-----------------------------------------|
Db|55555555555555555555555555555--7-7-----------------------------------------|
   .............................

Lead Guitar (1:25)
eb|555---555-------555---555--------------------------------------------------|
Bb|---777---7777777---777---777-----------------------------------------------|
Gb|---------------------------------------------------------------------------|
Db|---------------------------------------------------------------------------|
Ab|---------------------------------------------------------------------------|
Eb|---------------------------------------------------------------------------|
   ............................

Rhythym Guitar (1:32)
eb|---------------------------------------------------------------------------|
Bb|---------------------------------------------------------------------------|
Gb|------6------666666------9------999999-------------------------------------|
Db|999-----9-9---------999--x-9-9--xxxxxx-------------------------------------|
Ab|999-----9-9---------999--7-9-9--777777-------------------------------------|
Db|999-----9-9---------999----9-9---------------------------------------------|

Lead Guitar (1:38)
eb|555---555-------555---555--------------------------------------------------|
Bb|---777---7777777---777---777-----------------------------------------------|
Gb|----------------------------9999-------------------------------------------|
Db|---------------------------------------------------------------------------|
Ab|---------------------------------------------------------------------------|
Eb|---------------------------------------------------------------------------|
   ............................

Rhythym Guitar (1:45)
eb|---------------------------------------------------------------------------|
Bb|---------------------------------------------------------------------------|
Gb|-----11-11-11-11-11-----11-11-11-11-----11-11-11-----11-11-11--------------|
Db|555--x--x--x--x--x--77--x--x--x--x--999-x--x--x--999-x--x--x--9979---------|
Ab|555--9--9--9--9--9--77--9--9--9--9--999-9--9--9--999-9--9--9--9979---------|
Db|555-----------------77--------------999----------999----------9979---------|

eb|---------------------------------------------------------------------------|
Bb|---------------------------------------------------------------------------|
Gb|-----11-11-11-11-11-----11-11-11-11-----11-11-11-----11-11-11--------------|
Db|555--x--x--x--x--x--77--x--x--x--x--999-x--x--x--999-x--x--x--9979---------|
Ab|555--9--9--9--9--9--77--9--9--9--9--999-9--9--9--999-9--9--9--9979---------|
Db|555-----------------77--------------999----------999----------9979---------|

Lead Guitar (1:51)
eb|---------------------------------------------------------------------------|
Bb|--------7---------------7---------------7----------------------------------|
Gb|----7-------7---9---7-------7---9---7-------7---9---7---9---6-7-6----------|
Db|7-9---9---9---9---9---9---9---9---9---9---9---9---9---9---9-------7--------|
Ab|---------------------------------------------------------------------------|
Eb|---------------------------------------------------------------------------|

Rhythym Guitar (1:58)
eb|---------------------------------------------------------------------------|
Bb|---------------------------------------------------------------------------|
Gb|---------------------------------------------------------------------------|
Db|55555555-7777757-999999-99999997955555555-7777757999999799999xxxx----------|
Ab|55555555-7777757-999999-99999997955555555-7777757999999799999xxxx----------|
Db|55555555-7777757-999999-99999997955555555-7777757999999799999xxxx----------|

Lead Guitar (1:58)
eb|---------------------------------------------------------------------------|
Bb|--------7---------------7---------------7----------------------------------|
Gb|----7-------7---9---7-------7---9---7-------7---9---7---9---6-7-6----------|
Db|7-9---9---9---9---9---9---9---9---9---9---9---9---9---9---9-------7--------|
Ab|---------------------------------------------------------------------------|
Eb|---------------------------------------------------------------------------|

eb|---------------------------------------------------------------------------|
Bb|-----7---------------7---------------7-------------------------------------|
Gb|-7-------7---9---7-------7---9---7-------7---9---7---9---6-7-6-------------|
Db|---9---9---9---9---9---9---9---9---9---9---9---9---9---9-------7-----------|
Ab|---------------------------------------------------------------------------|
Eb|---------------------------------------------------------------------------|

Rhythym Guitar (2:11)
eb|---------------------------------------------------------------------------|
Bb|---------------------------------------------------------------------------|
Gb|------6------666666------9------999999-------------------------------------|
Db|999-----9-9---------999--x-9-9--xxxxxx-------------------------------------|
Ab|999-----9-9---------999--7-9-9--777777-------------------------------------|
Db|999-----9-9---------999----9-9---------------------------------------------|

Rhythym Guitar (2:18)
eb|---------------------------------------------------------------------------|
Bb|--------------------------------------------------5------------------------|
Gb|---------------------------------------------------------------------------|
Db|5-----7------5-----7-------5-----7------5----55555-------------------------|
Ab|5-----7------5-----7-------5-----7------5----55555-------------------------|
Db|5-----7------5-----7-------5-----7------5----55555-------------------------|
                                                .....

Lead Guitar (2:18)
eb|----5------5-----5-----5-------5------5-----5-----5------------------------|
Bb|--3------3-----3-----3---3---3------3-----3-----3--------------------------|
Gb|---------------------------------------------------------------------------|
Db|---------------------------------------------------------------------------|
Ab|------0------------0-------------0------------0----------------------------|
Eb|3------------3-------------3------------3----------------------------------|

Rhythym Guitar (2:25)
eb|---------------------------------------------------------------------------|
Bb|---------------------------------------------------------------------------|
Gb|------6------666666------9------999999-------------------------------------|
Db|999-----9-9---------999--x-9-9--xxxxxx-------------------------------------|
Ab|999-----9-9---------999--7-9-9--777777-------------------------------------|
Db|999-----9-9---------999----9-9---------------------------------------------|

Lead Guitar (2:31)
eb|----5------5-----5-----5-------5------5-----5-----5------------------------|
Bb|--3------3-----3-----3---3---3------3-----3-----3--------------------------|
Gb|0------------0-------------0------------0----------------------------------|
Db|---------------------------------------------------------------------------|
Ab|------0------------0-------------0------------0----------------------------|
Eb|---------------------------------------------------------------------------|

Lead Guitar (2:38)
eb|---------------------------------------------------------------------------|
Bb|---------------------------------------------------------------------------|
Gb|--0---0-2-0---0---0---2---0----------0---0-2-0---0---0---2---0-------------|
Db|4---4-------4---4---4---4---4------4---4-------4---4---4---4---4-----------|
Ab|---------------------------------------------------------------------------|
Eb|---------------------------------------------------------------------------|

Lead Guitar (2:45)
eb|----5------5-----5-----5-------5------5-----5-----5------------------------|
Bb|--3------3-----3-----3---3---3------3-----3-----3--------------------------|
Gb|0------------0-------------0------------0----------------------------------|
Db|---------------------------------------------------------------------------|
Ab|------0------------0-------------0------------0----------------------------|
Eb|---------------------------------------------------------------------------|

Lead Guitar (2:51)
eb|---------------------------------------------------------------------------|
Bb|---------------------------------------------------------------------------|
Gb|--0---0-2-0---0---0---2---0----------0---0-2-0---0---0---2---0-------------|
Db|4---4-------4---4---4---4---4------4---4-------4---4---4---4---4-----------|
Ab|---------------------------------------------------------------------------|
Eb|---------------------------------------------------------------------------|

Lead Guitar (2:58)
eb|----5------5-----5-----5-------5------5-----5-----5------------------------|
Bb|--3------3-----3-----3---3---3------3-----3-----3--------------------------|
Gb|0------------0-------------0------------0----------------------------------|
Db|---------------------------------------------------------------------------|
Ab|------0------------0-------------0------------0----------------------------|
Eb|---------------------------------------------------------------------------|

Rhythym Guitar (3:05)
eb|----------------0----------------------------------------------------------|
Bb|---------------------------------------------------------------------------|
Gb|---------------------------------------------------------------------------|
Db|9--999999999999------------------------------------------------------------|
Ab|9--999999999999------------------------------------------------------------|
Db|9--999999999999------------------------------------------------------------|
      ............

Rhythym Guitar (3:08)
eb|---------------------------------------------------------------------------|
Bb|---------------------------------------------------------------------------|
Gb|-----11-11-11-11-11-----11-11-11-11-----11-11-11-----11-11-11--------------|
Db|555--x--x--x--x--x--77--x--x--x--x--999-x--x--x--999-x--x--x--9979---------|
Ab|555--9--9--9--9--9--77--9--9--9--9--999-9--9--9--999-9--9--9--9979---------|
Db|555-----------------77--------------999----------999----------9979---------|

eb|---------------------------------------------------------------------------|
Bb|---------------------------------------------------------------------------|
Gb|-----11-11-11-11-11-----11-11-11-11-----11-11-11-----11-11-11--------------|
Db|555--x--x--x--x--x--77--x--x--x--x--999-x--x--x--999-x--x--x--9979---------|
Ab|555--9--9--9--9--9--77--9--9--9--9--999-9--9--9--999-9--9--9--9979---------|
Db|555-----------------77--------------999----------999----------9979---------|

Lead Guitar (3:14)
eb|---------------------------------------------------------------------------|
Bb|--------7---------------7---------------7----------------------------------|
Gb|----7-------7---9---7-------7---9---7-------7---9---7---9---6-7-6----------|
Db|7-9---9---9---9---9---9---9---9---9---9---9---9---9---9---9-------7--------|
Ab|---------------------------------------------------------------------------|
Eb|---------------------------------------------------------------------------|

Rhythym Guitar (3:21)
eb|---------------------------------------------------------------------------|
Bb|---------------------------------------------------------------------------|
Gb|---------------------------------------------------------------------------|
Db|55555555-7777757-99999999-999997955555555-77777579999999999999999----------|
Ab|55555555-7777757-99999999-999997955555555-77777579999999999999999----------|
Db|55555555-7777757-99999999-999997955555555-77777579999999999999999----------|

Lead Guitar (3:21)
eb|---------------------------------------------------------------------------|
Bb|-----7---------------7---------------7-------------------------------------|
Gb|-7-------7---9---7-------7---9---7-------7---9---7---9---6-7-6-------------|
Db|---9---9---9---9---9---9---9---9---9---9---9---9---9---9-------7-----------|
Ab|---------------------------------------------------------------------------|
Eb|---------------------------------------------------------------------------|

eb|---------------------------------------------------------------------------|
Bb|-----7---------------7---------------7-------------------------------------|
Gb|-7-------7---9---7-------7---9---7-------7---9---7---9---6-7-6-7-----------|
Db|---9---9---9---9---9---9---9---9---9---9---9---9---9---9-------------------|
Ab|---------------------------------------------------------------------------|
Eb|---------------------------------------------------------------------------|

| /  slide up
| \  slide down
| h  hammer-on
| p  pull-off
| ~  vibrato
| +  harmonic
| x  Mute note
| .  Palm Mute
===============================================================================





Comments


Popular Just Surrender tabs & chords
I Can Barely Breathe Chords
Something That I'm Not Chords
You'd Be In Great Shape If You Ran Like Your Mouth Chords
New Declaration Intro Tabs
Take Me Home Tabs
Tell Me Everything Tabs
We're In Like Sin Tabs
You Tell A Tale Tabs
My Silhouette Ukulele
She Broke My Heart So I Broke His Jaw Ukulele


Song lyrics



↑ Back to top | Tablatures and chords are parodies/interpretations of the original songs. You may use it for private study, scholarship, research or language learning purposes only
© 2014 AZChords.com Contact us | Privacy policy | DMCA | Add/correct tabs | Request tabs | Top 50 tabs