>
 >
Forgotten Not Forgiven 2

Forgotten Not Forgiven 2 Guitar Tabs

Just Surrender - Forgotten Not Forgiven 2 chords, tabs, tablatures, lyrics

Guitar lessons | Add/correct | Request | Top 50 tabs Artists:  A B C D E F G H I J K L M N O P Q R S T U V W X Y Z 0-9

Forgotten Not Forgiven 2 Guitar Tabs – Just Surrender

CD, Sheet music, Poster

Do you like Forgotten Not Forgiven 2? Share with your friends now
TabsTabs v2Tabs v3
This is my first tab, and I only decided to write this because all the tabs on 
lead guitar. I also uploaded a guitar pro 5 version with both guitars on 

Hope you like it, it isn't a very difficult song, it just takes a little practice. 
Great song to practice alternate picking and hammer ons/pull offs.


Lead (Tuned 1/2 Step down: Eb Ab Db Gb Bb eb)
         
--------------------------------------------------|
--------------15-15-15-15-------------15-15-15-15-|
--12-12-12-12-------------12-12-12-12-------------|
--------------------------------------------------|
--------------------------------------------------|
--------------------------------------------------|

   
--------------------------------------------------|
--------------13-13-13-13-------------13-13-13-13-|
--12-12-12-12-------------12-12-12-12-------------|
--------------------------------------------------|
--------------------------------------------------|
--------------------------------------------------|

     
--------------------------------------------------|
--------------12-12-12-12-------------12-12-12-12-|
--12-12-12-12-------------12-12-12-12-------------|
--------------------------------------------------|
--------------------------------------------------|
--------------------------------------------------|

  
--------------------------------------------------|
--------------------------------------------------|
--11h12-11h12-14p12-11h12-11h12-11h12-14p12-11h12-|
--------------------------------------------------|
--------------------------------------------------|
--------------------------------------------------|

     
--------------------------14-14-14-14-------------|
--------------15-15-15-15-------------15-15-15-15-|
--12-12-12-12-------------------------------------|
--------------------------------------------------|
--------------------------------------------------|
--------------------------------------------------|

     
--------------------------------------------------|
--------------13-13-13-13-------------13-13-13-13-|
--12-12-12-12-------------12-12-12-12-------------|
--------------------------------------------------|
--------------------------------------------------|
--------------------------------------------------|

    
--------------------------------------------------|
--------------12-12-12-12-------------12-12-12-12-|
--12-12-12-12-------------12-12-12-12-------------|
--------------------------------------------------|
--------------------------------------------------|
--------------------------------------------------|

     
--------------------------------------------------|
--------------------------------------------------|
--11h12-11h12-14p12-11h12-11h12-11h12-14p12-11h12-|
--------------------------------------------------|
--------------------------------------------------|
--------------------------------------------------|

     
----------------------------------|--------------------------------|
----------------------------------|--------------------------------|
----------------------------------|--------------------------------|
----------------------------------|-----12---------------12--------|
--10-9h10p9-------10-9h10p9-------|--10----10p9-------10----10p9---|
------------10--------------12----|-------------12---------------8-|


----------------------------------|--------------------------------|
----------------------------------|--------------------------------|
----------------------------------|--------------------------------|
----------------------------------|-----12---------------12--------|
--10-9h10p9-------10-9h10p9-------|--10----10p9-------10----10p9---|
------------10--------------12----|-------------12---------------8-|


----------------------------------|--------------------------------|
----------------------------------|--------------------------------|
----------------------------------|--------------------------------|
----------------------------------|-----12---------------12--------|
--10-9h10p9-------10-9h10p9-------|--10----10p9-------10----10p9---|
------------10--------------12----|-------------12---------------8-|


----------------------------------|--------------------------------|
----------------------------------|--------------------------------|
----------------------------------|--------------------------------|
----------------------------------|-----12---------------12--------|
--10-9h10p9-------10-9h10p9-------|--10----10p9-------10----10p9---|
------------10--------------12----|-------------12-----------------|

     
--------------------------------------------------|
--------------------------------------------------|
--11h12-11h12-11h12-11h12-11h12-11h12-11h12-11h12-|
--------------------------------------------------|
--------------------------------------------------|
--------------------------------------------------|

     
--14h15-14h15-14h15-14h15-14h15-14h15-14h15-14h15-|
--------------------------------------------------|
--------------------------------------------------|
--------------------------------------------------|
--------------------------------------------------|
--------------------------------------------------|


--------------------------------------------------|
--------------15-15-15-15-------------15-15-15-15-|
--12-12-12-12-------------12-12-12-12-------------|
--------------------------------------------------|
--------------------------------------------------|
--------------------------------------------------|

   
--------------------------------------------------|
--------------13-13-13-13-------------13-13-13-13-|
--12-12-12-12-------------12-12-12-12-------------|
--------------------------------------------------|
--------------------------------------------------|
--------------------------------------------------|

     
--------------------------------------------------|
--------------12-12-12-12-------------12-12-12-12-|
--12-12-12-12-------------12-12-12-12-------------|
--------------------------------------------------|
--------------------------------------------------|
--------------------------------------------------|

  
--------------------------------------------------|
--------------------------------------------------|
--11h12-11h12-14p12-11h12-11h12-11h12-14p12-11h12-|
--------------------------------------------------|
--------------------------------------------------|
--------------------------------------------------|

     
--------------------------14-14-14-14-------------|
--------------15-15-15-15-------------15-15-15-15-|
--12-12-12-12-------------------------------------|
--------------------------------------------------|
--------------------------------------------------|
--------------------------------------------------|

     
--------------------------------------------------|
--------------13-13-13-13-------------13-13-13-13-|
--12-12-12-12-------------12-12-12-12-------------|
--------------------------------------------------|
--------------------------------------------------|
--------------------------------------------------|

    
--------------------------------------------------|
--------------12-12-12-12-------------12-12-12-12-|
--12-12-12-12-------------12-12-12-12-------------|
--------------------------------------------------|
--------------------------------------------------|
--------------------------------------------------|


--------------------------------------------------|
--------------------------------------------------|
--11h12-11h12-14p12-11h12-11h12-11h12-14p12-11h12-|
--------------------------------------------------|
--------------------------------------------------|
--------------------------------------------------|

     
----------------------------------|--------------------------------|
----------------------------------|--------------------------------|
----------------------------------|--------------------------------|
----------------------------------|-----12---------------12--------|
--10-9h10p9-------10-9h10p9-------|--10----10p9-------10----10p9---|
------------10--------------12----|-------------12---------------8-|


----------------------------------|--------------------------------|
----------------------------------|--------------------------------|
----------------------------------|--------------------------------|
----------------------------------|-----12---------------12--------|
--10-9h10p9-------10-9h10p9-------|--10----10p9-------10----10p9---|
------------10--------------12----|-------------12---------------8-|


----------------------------------|--------------------------------|
----------------------------------|--------------------------------|
----------------------------------|--------------------------------|
----------------------------------|-----12---------------12--------|
--10-9h10p9-------10-9h10p9-------|--10----10p9-------10----10p9---|
------------10--------------12----|-------------12---------------8-|


----------------------------------|--------------------------------|
----------------------------------|--------------------------------|
----------------------------------|--------------------------------|
----------------------------------|-----12---------------12--------|
--10-9h10p9-------10-9h10p9-------|--10----10p9-------10----10p9---|
------------10--------------12----|-------------12-----------------|

     
--------------------------------------------------|
--------------------------------------------------|
--11h12-11h12-11h12-11h12-11h12-11h12-11h12-11h12-|
--------------------------------------------------|
--------------------------------------------------|
--------------------------------------------------|

     
--14h15-14h15-14h15-14h15-14h15-14h15-14h15-14h15-|
--------------------------------------------------|
--------------------------------------------------|
--------------------------------------------------|
--------------------------------------------------|
--------------------------------------------------|


--------------------------------------------------|
--------------15-15-15-15-------------15-15-15-15-|
--12-12-12-12-------------12-12-12-12-------------|
--------------------------------------------------|
--------------------------------------------------|
--------------------------------------------------|

   
--------------------------------------------------|
--------------13-13-13-13-------------13-13-13-13-|
--12-12-12-12-------------12-12-12-12-------------|
--------------------------------------------------|
--------------------------------------------------|
--------------------------------------------------|

     
--------------------------------------------------|
--------------12-12-12-12-------------12-12-12-12-|
--12-12-12-12-------------12-12-12-12-------------|
--------------------------------------------------|
--------------------------------------------------|
--------------------------------------------------|

  
--------------------------------------------------|
--------------------------------------------------|
--11h12-11h12-14p12-11h12-11h12-11h12-14p12-11h12-|
--------------------------------------------------|
--------------------------------------------------|
--------------------------------------------------|

     
--------------------------14-14-14-14-------------|
--------------15-15-15-15-------------15-15-15-15-|
--12-12-12-12-------------------------------------|
--------------------------------------------------|
--------------------------------------------------|
--------------------------------------------------|

     
--------------------------------------------------|
--------------13-13-13-13-------------13-13-13-13-|
--12-12-12-12-------------12-12-12-12-------------|
--------------------------------------------------|
--------------------------------------------------|
--------------------------------------------------|

    
--------------------------------------------------|
--------------12-12-12-12-------------12-12-12-12-|
--12-12-12-12-------------12-12-12-12-------------|
--------------------------------------------------|
--------------------------------------------------|
--------------------------------------------------|


--------------------------------------------------|
--------------------------------------------------|
--11h12-11h12-14p12-11h12-11h12-11h12-14p12-11h12-|
--------------------------------------------------|
--------------------------------------------------|
--------------------------------------------------|


--------------------------|--------------------------|
--------------------------|--------------------------|
--5--5--5--5--5--5--9--9--|--7--7--7--7--7--7--9--9--|
--------------------------|--------------------------|
--3--3--3--3--3--3--7--7--|--5--5--5--5--5--5--7--7--|
--------------------------|--------------------------|

   
--------------------------------|----------------------------------|
--------------------------------|----------------------------------|
--11--11--11--11--9--9--12--12--|--14--14--14--14--16--16--16--16--|
--------------------------------|----------------------------------|
---9---9---9---9--7--7--10--10--|--12--12--12--12--14--14--14--14--|
--------------------------------|----------------------------------|

    
--------------------------|--------------------------|
--------------------------|--------------------------|
--5--5--5--5--5--5--9--9--|--7--7--7--7--7--7--9--9--|
--------------------------|--------------------------|
--3--3--3--3--3--3--7--7--|--5--5--5--5--5--5--7--7--|
--------------------------|--------------------------|

   
--------------------------------|----------------------------------|
--------------------------------|----------------------------------|
--11--11--11--11--9--9--12--12--|--14--14--14--14--16--16--16--16--|
--------------------------------|----------------------------------|
---9---9---9---9--7--7--10--10--|--12--12--12--12--14--14--14--14--|
--------------------------------|----------------------------------|

     
--10--------10--------10-----|--10--------10--------10-----|
------7--8------7--8------7--|------7--8------7--8------7--|
-----------------------------|-----------------------------|
-----------------------------|-----------------------------|
-----------------------------|-----------------------------|
-----------------------------|-----------------------------|

      
--10--------10--------10-----|--10--------10--------10-----|
------7--8------7--8------7--|------7--8------7--8------7--|
-----------------------------|-----------------------------|
-----------------------------|-----------------------------|
-----------------------------|-----------------------------|
-----------------------------|-----------------------------|

     
--10--------10--------10-----|--10--------10--------10-----|
------7--8------7--8------7--|------7--8------7--8------7--|
-----------------------------|-----------------------------|
-----------------------------|-----------------------------|
-----------------------------|-----------------------------|
-----------------------------|-----------------------------|
      
     
--------------------------------|----------------------------------|
--------------------------------|----------------------------------|
--11--11--11--11--9--9--12--12--|--14--14--14--14--16--16--16--16--|
--------------------------------|----------------------------------|
---9---9---9---9--7--7--10--10--|--12--12--12--12--14--14--14--14--|
--------------------------------|----------------------------------|

    
--------------15-15-15-15-------------15-15-15-15-|
--12-12-12-12-------------12-12-12-12-------------|
--------------------------------------------------|
--------------------------------------------------|
--------------------------------------------------|
--------------------------------------------------|


--------------------------------------------------|
--------------15-15-15-15-------------15-15-15-15-|
--12-12-12-12-------------12-12-12-12-------------|
--------------------------------------------------|
--------------------------------------------------|
--------------------------------------------------|

   
--------------------------------------------------|
--------------13-13-13-13-------------13-13-13-13-|
--12-12-12-12-------------12-12-12-12-------------|
--------------------------------------------------|
--------------------------------------------------|
--------------------------------------------------|

     
--------------------------------------------------|
--------------12-12-12-12-------------12-12-12-12-|
--12-12-12-12-------------12-12-12-12-------------|
--------------------------------------------------|
--------------------------------------------------|
--------------------------------------------------|


--------------------------------------------------|
--------------------------------------------------|
--11h12-11h12-14p12-11h12-11h12-11h12-14p12-11h12-|
--------------------------------------------------|
--------------------------------------------------|
--------------------------------------------------|

     
--------------------------14-14-14-14-------------|
--------------15-15-15-15-------------15-15-15-15-|
--12-12-12-12-------------------------------------|
--------------------------------------------------|
--------------------------------------------------|
--------------------------------------------------|

     
--------------------------------------------------|
--------------13-13-13-13-------------13-13-13-13-|
--12-12-12-12-------------12-12-12-12-------------|
--------------------------------------------------|
--------------------------------------------------|
--------------------------------------------------|

    
--------------------------------------------------|
--------------12-12-12-12-------------12-12-12-12-|
--12-12-12-12-------------12-12-12-12-------------|
--------------------------------------------------|
--------------------------------------------------|
--------------------------------------------------|


--------------------------------------------------|
--------------------------------------------------|
--11h12-11h12-14p12-11h12-11h12-11h12-14p12-11h12-|
--------------------------------------------------|
--------------------------------------------------|
--------------------------------------------------|

  
--------------------------|--------------------------|
--------------------------|--------------------------|
--5--5--5--5--5--5--9--9--|--7--7--7--7--7--7--9--9--|
--------------------------|--------------------------|
--3--3--3--3--3--3--7--7--|--5--5--5--5--5--5--7--7--|
--------------------------|--------------------------|

  
--------------------------------|----------------------------------|
--------------------------------|----------------------------------|
--11--11--11--11--9--9--12--12--|--14--14--14--14--16--16--16--16--|
--------------------------------|----------------------------------|
---9---9---9---9--7--7--10--10--|--12--12--12--12--14--14--14--14--|
--------------------------------|----------------------------------|


--10--------10--------10-----|--10--------10--------10-----|
------7--8------7--8------7--|------7--8------7--8------7--|
-----------------------------|-----------------------------|
-----------------------------|-----------------------------|
-----------------------------|-----------------------------|
-----------------------------|-----------------------------|





Tablature Legend
----------------
h - hammer on
p - pull off





Comments


Popular Just Surrender tabs & chords
Carried Away Chords
Of All We've Known Chords
What We've Become Chords
Forgotten Not Forgiven Tabs
Of All We've Known Tabs
Stronger Now Tabs
We're In Like Sin Tabs
You Tell A Tale Tabs
Body Language And Bad Habits Ukulele
Something That Im Not Ukulele


Song lyrics



↑ Back to top | Tablatures and chords are parodies/interpretations of the original songs. You may use it for private study, scholarship, research or language learning purposes only
© 2014 AZChords.com Contact us | Privacy policy | DMCA | Add/correct tabs | Request tabs | Top 50 tabs