» » »

Just Surrender, Forgotten Not Forgiven Tabs (ver.2)

Artists:  A B C D E F G H I J K L M N O P Q R S T U V W X Y Z # 

Forgotten Not Forgiven Tabs (ver.2)

Just Surrender Tabs
 Rating:
4.4/5 (7 votes)
Forgotten Not Forgiven lessons Tabs too difficult? Try these video lessons and learn fast
                ===============================================================================
-------------------------------------------------------------------------------
                             Forgotten Not Forgiven - Just Surrender
-------------------------------------------------------------------------------
Band: Just Surrender
Tuning:DADGBE
Note: I am pretty sure I am the first person to tab this song.
Feel free to comment. My sn is SHUTUP IM POOR, if you have any suggestions / comments.



Guitar 1 (Intro)x2
E||-----------9-9-9-9---------9-9-9-9-|----------7-7-7-7---------7-7-7-7-|
B||---7-7-7-7---------7-7-7-7---------|--7-7-7-7---------7-7-7-7---------|
G||-----------------------------------|----------------------------------|
D||-----------------------------------|----------------------------------|
A||-----------------------------------|----------------------------------|
D||-----------------------------------|----------------------------------|

                                                                        
E||----------6-6-6-6---------6-6-6-6-|-----------------------------------||
B||--7-7-7-7---------7-7-7-7---------|--6-7-6-7-9-7-6-7-6-7-6-7-9-7-6-7--||
G||----------------------------------|-----------------------------------||
D||----------------------------------|-----------------------------------||
A||----------------------------------|-----------------------------------||
D||----------------------------------|-----------------------------------||

Guitar 2 (Intro)x2
E||---------------------------|--------------------------|
B||---------------------------|--------------------------|
G||---4--4--4--4--4--4--4--4--|--6--6--6--6--6--6--6--6--|
D||---4--4--4--4--4--4--4--4--|--6--6--6--6--6--6--6--6--|
A||---2--2--2--2--2--2--2--2--|--4--4--4--4--4--4--4--4--|
D||---------------------------|--------------------------|
                                                                     
E||-------------------------|---------------------|
B||-------------------------|---------------------|
G||-------------------------|---------------------|
D||--1-1-1-1-1~-------1/-3--|--4~-------6~--------| 
A||--1-1-1-1-1~-------1/-3--|--4~-------6~--------|
D||--1-1-1-1-1~-------1/-3--|--4~-------6~--------|
  pm . . . .  

Guitar 1 (End of Intro)
E||--------------------------|
B||--------------------------|
G||--------------------------|
D||-----6-6p5-----6-6p5------|
A||--4----------6--------8---|
D||--------------------------|

Guitar 2 (End of Intro)                                                             
E||-------------------|
B||-------------------|
G||--6~---------------|
D||--6~---------------|
A||--4~---------------|
D||-------------------|


                                                      
Guitar 1 (Verse) 
E||--------------------------|
B||--------------------------|
G||--------------------------|
D||-----6-6p5-----6-6p5------|
A||-------------6--------8---|
D||--------------------------|
*There might be a slight variation in what he palys but thats the basic idea*

Guitar 2(Verse)
*mostly all palm muted, listen for when he lets go*                                                                   
E||--------------------------|--------------------------|-------------------------|
B||--------------------------|--------------------------|-------------------------|
G||--------------------------|--------------------------|--4----4--4--4--4--4--4--|
D||--1--1--1--1--1--1--1--1--|--1--1--1--1--1--1--1--1--|--4----4--4--4--4--4--4--|
A||--1--1--1--1--1--1--1--1--|--1--1--1--1--1--1--1--1--|--2----2--2--2--2--2--2--|
D||--1--1--1--1--1--1--1--1--|--1--1--1--1--1--1--1--1--|-------------------------|

                                                      
E||--------------------------|
B||--------------------------|
G||--6--6--6--6--6--6--6--6--|
D||--6--6--6--6--6--6--6--6--|
B||--4--4--4--4--4--4--4--4--|
D||--------------------------|

Guitar 1 (Chorus)
E||-----------9-9-9-9---------9-9-9-9-|----------7-7-7-7---------7-7-7-7-|
B||---7-7-7-7---------7-7-7-7---------|--7-7-7-7---------7-7-7-7---------|
G||-----------------------------------|----------------------------------|
D||-----------------------------------|----------------------------------|
A||-----------------------------------|----------------------------------|
D||-----------------------------------|----------------------------------|

                                                                        
E||----------6-6-6-6---------6-6-6-6-|-----------------------------------||
B||--7-7-7-7---------7-7-7-7---------|--6-7-6-7-9-7-6-7-6-7-6-7-9-7-6-7--||
G||----------------------------------|-----------------------------------||
D||----------------------------------|-----------------------------------||
A||----------------------------------|-----------------------------------||
D||----------------------------------|-----------------------------------||

Guitar 2 (Chorus)
E||---------------------------|--------------------------|
B||---------------------------|--------------------------|
G||---4--4--4--4--4--4--4--4--|--6--6--6--6--6--6--6--6--|
D||---4--4--4--4--4--4--4--4--|--6--6--6--6--6--6--6--6--|
A||---2--2--2--2--2--2--2--2--|--4--4--4--4--4--4--4--4--|
D||---------------------------|--------------------------|
                                                                     
E||-------------------------|---------------------|
B||-------------------------|---------------------|
G||-------------------------|---------------------|
D||--1-1-1-1-1~-------1/-3--|--4~-------6~--------| 
A||--1-1-1-1-1~-------1/-3--|--4~-------6~--------|
D||--1-1-1-1-1~-------1/-3--|--4~-------6~--------|
  pm . . . .  

Bridge
Guitar 1                                                                                                                Last
E||--------------------------|--------------------------|---------------------------|----------------------------------||---
B||--------------------------|--------------------------|---------------------------|----------------------------------||---
G||--4--4--4--4--4--4--8--8--|--6--6--6--6--6--6--8--8--|--10----10--8--10----10----|--12--12--12--12--14--14--14--14--||-15
D||--x--x--x--x--x--x--x--x--|--x--x--x--x--x--x--x--x--|--x-----x---x--x-----x-----|--x---x---x---x---x---x---x---x---||-x-
A||--2--2--2--2--2--2--6--6--|--4--4--4--4--4--4--6--6--|--8-----8---6--8-----8-----|--10--10--10--10--12--12--12--12--||-13 
D||--------------------------|--------------------------|---------------------------|----------------------------------||---
(On the last time threw end on 

Guitar 2 (Comes in Half way)
E||--9--------9--------9-----||
B||-----7--7-----7--7-----7--||
G||--------------------------|| x6
D||--------------------------|| 
A||--------------------------||
D||--------------------------||

Those are all of the different parts of the song. 
Listen and you will know when to put each in. Please Rate

| /  slide up
| \  slide down
| h  hammer-on
| p  pull-off
| ~  vibrato
| +  harmonic
| x  Mute note
===============================================================================
            
Submit corrections

comments powered by Disqus
↑ Back to top | Just Surrender Tabs for Forgotten Not Forgiven. Lyrics for acoustic guitar and electric guitar. Tablatures and chords are parodies/interpretations of the original songs. You may use it for private study, scholarship, research or language learning purposes only