>
 >
Forgotten Not Forgiven

Forgotten Not Forgiven Guitar Tabs

Just Surrender - Forgotten Not Forgiven chords, tabs, tablatures, lyrics

Guitar lessons | Add/correct | Request | Top 50 tabs Artists:  A B C D E F G H I J K L M N O P Q R S T U V W X Y Z 0-9

Forgotten Not Forgiven Guitar Tabs – Just Surrender

CD, Sheet music, Poster

Do you like Forgotten Not Forgiven? Share with your friends now
TabsTabs v2Tabs v3
-------------------------------------------------------------------------------
                Forgotten Not Forgiven- Just Surrender
-------------------------------------------------------------------------------

Rhythm Guitar: Half Step Down and Drop D
Lead Guitar: Half Step Down

Lead Guitar (0:02)
eb|---------------------------------------------------------------------------|
Bb|--------15151515--------15151515--------13131313--------13131313-----------|
Gb|12121212--------12121212--------12121212--------12121212--------12121212---|
Db|---------------------------------------------------------------------------|
Ab|---------------------------------------------------------------------------|
Eb|---------------------------------------------------------------------------|

eb|---------------------------------------------------------------------------|
Bb|12121212--------12121212---------------------------------------------------|
Gb|--------12121212--------11-12-11-12-14-12-11-12-11-12-11-12-14-12-11-12----|
Db|---------------------------------------------------------------------------|
Ab|---------------------------------------------------------------------------|
Eb|---------------------------------------------------------------------------|

eb|----------------14141414---------------------------------------------------|
Bb|--------15151515--------15151515--------13131313--------13131313-----------|
Gb|12121212------------------------12121212--------12121212--------12121212---|
Db|---------------------------------------------------------------------------|
Ab|---------------------------------------------------------------------------|
Eb|---------------------------------------------------------------------------|

eb|---------------------------------------------------------------------------|
Bb|12121212--------12121212---------------------------------------------------|
Gb|--------12121212--------11-12-11-12-14-12-11-12-11-12-11-12-14-12-11-12----|
Db|---------------------------------------------------------------------------|
Ab|---------------------------------------------------------------------------|
Eb|---------------------------------------------------------------------------|

Rhythym (0:02)
eb|---------------------------------------------------------------------------|
Bb|---------------------------------------------------------------------------|
Gb|55555555555555557777777777777777-------------------------------------------|
Db|5555555555555555777777777777777722222-22222244445555555557777777-----------|
Ab|3333333333333333555555555555555522222-22222244445555555557777777-----------|
Db|--------------------------------22222-22222244445555555557777777-----------|
                                   ....

eb|---------------------------------------------------------------------------|
Bb|---------------------------------------------------------------------------|
Gb|55555555555555557777777777777777-------------------------------------------|
Db|5555555555555555777777777777777722222-22222244445555555557777777-10--------|
Ab|3333333333333333555555555555555522222-22222244445555555557777777-10--------|
Db|--------------------------------22222-22222244445555555557777777-10--------|
                                   ....

Lead Guitar (0:22)
eb|---------------------------------------------------------------------------|
Bb|---------------------------------------------------------------------------|
Gb|---------------------------------------------------------------------------|
Db|---------------------------------------12---------------12-----------------|
Ab|10-10-9h10-10-------10-9h10-9-------10----10p9-------10----10p9------------|
Eb|--------------10--------------12---------------12---------------8----------|

eb|---------------------------------------------------------------------------|
Bb|---------------------------------------------------------------------------|
Gb|---------------------------------------------------------------------------|
Db|------------------------------------12---------------12--------------------|
Ab|10-9h10-10-------10-9h10-9-------10----10p9-------10----10-----------------|
Eb|-----------10--------------12---------------12---------------8-------------|

eb|---------------------------------------------------------------------------|
Bb|---------------------------------------------------------------------------|
Gb|---------------------------------------------------------------------------|
Db|------------------------------------12---------------12--------------------|
Ab|10-9h10-10-------10-9h10-9-------10----10p9-------10----10p9---------------|
Eb|-----------10--------------12---------------12---------------8-------------|

eb|---------------------------------------------------------------------------|
Bb|---------------------------------------------------------------------------|
Gb|---------------------------------------------------------------------------|
Db|------------------------------------12---------------12--------------------|
Ab|10-9h10-10-------10-9h10-9-------10----10p9-------10----10p9---------------|
Eb|-----------10--------------12---------------12-----------------------------|

Rhythym Guitar (0:24) strum when the lead guitar hits the E string
eb|---------------------------------------------------------------------------|
Bb|---------------------------------------------------------------------------|
Gb|------------------5--xxxxxx-7--xxxxxx-------------------5--xxxxxx-7--xxxxxx|
Db|2--xxxxx-2--xxxxx-5--xxxxxx-7--xxxxxx-2--xxxxx-2--xxxxx-5--xxxxxx-7--xxxxxx|
Ab|2--xxxxx-2--xxxxx-3--xxxxxx-5--xxxxxx-2--xxxxx-2--xxxxx-3--xxxxxx-5--xxxxxx|
Db|2--xxxxx-2--xxxxx---------------------2--xxxxx-2--xxxxx--------------------|

eb|---------------------------------------------------------------------------|
Bb|---------------------------------------------------------------------------|
Gb|------------------5--xxxxxx-7--xxxxxx-------------------5---------7--------|
Db|2--xxxxx-2--xxxxx-5--xxxxxx-7--xxxxxx-2--xxxxx-2--xxxxx-5---------7--------|
Ab|2--xxxxx-2--xxxxx-3--xxxxxx-5--xxxxxx-2--xxxxx-2--xxxxx-3---------5--------|
Db|2--xxxxx-2--xxxxx---------------------2--xxxxx-2--xxxxx--------------------|

Lead Guitar (0:41)
eb|---------------------------------------------------------------------------|
Bb|---------------------------------------------------------------------------|
Gb|11h12-11h12-11h12-11h12-11h12-11h12-11h12-11h12----------------------------|
Db|---------------------------------------------------------------------------|
Ab|---------------------------------------------------------------------------|
Eb|---------------------------------------------------------------------------|

eb|14h15-14h15-14h15-14h15-14h15-14h15-14h15-14h15----------------------------|
Bb|---------------------------------------------------------------------------|
Gb|---------------------------------------------------------------------------|
Db|---------------------------------------------------------------------------|
Ab|---------------------------------------------------------------------------|
Eb|---------------------------------------------------------------------------|

Rhythym Guitar (0:46)
eb|---------------------------------------------------------------------------|
Bb|---------------------------------------------------------------------------|
Gb|---------------------------------------------------------------------------|
Db|222222222222---------------------------------------------------------------|
Ab|222222222222---------------------------------------------------------------|
Eb|222222222222---------------------------------------------------------------|

Lead Guitar (0:49)
eb|---------------------------------------------------------------------------|
Bb|--------15151515--------15151515--------13131313--------13131313-----------|
Gb|12121212--------12121212--------12121212--------12121212--------12121212---|
Db|---------------------------------------------------------------------------|
Ab|---------------------------------------------------------------------------|
Eb|---------------------------------------------------------------------------|

eb|---------------------------------------------------------------------------|
Bb|12121212--------12121212---------------------------------------------------|
Gb|--------12121212--------11-12-11-12-14-12-11-12-11-12-11-12-14-12-11-12----|
Db|---------------------------------------------------------------------------|
Ab|---------------------------------------------------------------------------|
Eb|---------------------------------------------------------------------------|

eb|----------------14141414---------------------------------------------------|
Bb|--------15151515--------15151515--------13131313--------13131313-----------|
Gb|12121212------------------------12121212--------12121212--------12121212---|
Db|---------------------------------------------------------------------------|
Ab|---------------------------------------------------------------------------|
Eb|---------------------------------------------------------------------------|

eb|---------------------------------------------------------------------------|
Bb|12121212--------12121212---------------------------------------------------|
Gb|--------12121212--------11-12-11-12-14-12-11-12-11-12-11-12-14-12-11-12----|
Db|---------------------------------------------------------------------------|
Ab|---------------------------------------------------------------------------|
Eb|---------------------------------------------------------------------------|

Rhythym (0:49)
eb|---------------------------------------------------------------------------|
Bb|---------------------------------------------------------------------------|
Gb|55555555555555557777777777777777-------------------------------------------|
Db|5555555555555555777777777777777722222-22222244445555555557777777-----------|
Ab|3333333333333333555555555555555522222-22222244445555555557777777-----------|
Db|--------------------------------22222-22222244445555555557777777-----------|
                                   ....

eb|---------------------------------------------------------------------------|
Bb|---------------------------------------------------------------------------|
Gb|55555555555555557777777777777777-------------------------------------------|
Db|5555555555555555777777777777777722222-22222244445555555557777777-10--------|
Ab|3333333333333333555555555555555522222-22222244445555555557777777-10--------|
Db|--------------------------------22222-22222244445555555557777777-10--------|
                                   ....

Lead Guitar (1:08)
eb|---------------------------------------------------------------------------|
Bb|---------------------------------------------------------------------------|
Gb|---------------------------------------------------------------------------|
Db|---------------------------------------12---------------12-----------------|
Ab|10-10-9h10-10-------10-9h10-9-------10----10p9-------10----10p9------------|
Eb|--------------10--------------12---------------12---------------8----------|

eb|---------------------------------------------------------------------------|
Bb|---------------------------------------------------------------------------|
Gb|---------------------------------------------------------------------------|
Db|------------------------------------12---------------12--------------------|
Ab|10-9h10-10-------10-9h10-9-------10----10p9-------10----10-----------------|
Eb|-----------10--------------12---------------12---------------8-------------|

eb|---------------------------------------------------------------------------|
Bb|---------------------------------------------------------------------------|
Gb|---------------------------------------------------------------------------|
Db|------------------------------------12---------------12--------------------|
Ab|10-9h10-10-------10-9h10-9-------10----10p9-------10----10p9---------------|
Eb|-----------10--------------12---------------12---------------8-------------|

eb|---------------------------------------------------------------------------|
Bb|---------------------------------------------------------------------------|
Gb|---------------------------------------------------------------------------|
Db|------------------------------------12---------------12--------------------|
Ab|10-9h10-10-------10-9h10-9-------10----10p9-------10----10p9---------------|
Eb|-----------10--------------12---------------12-----------------------------|

Rhythym Guitar (1:10) strum when the lead guitar hits the E string
eb|---------------------------------------------------------------------------|
Bb|---------------------------------------------------------------------------|
Gb|------------------5--xxxxxx-7--xxxxxx-------------------5--xxxxxx-7--xxxxxx|
Db|2--xxxxx-2--xxxxx-5--xxxxxx-7--xxxxxx-2--xxxxx-2--xxxxx-5--xxxxxx-7--xxxxxx|
Ab|2--xxxxx-2--xxxxx-3--xxxxxx-5--xxxxxx-2--xxxxx-2--xxxxx-3--xxxxxx-5--xxxxxx|
Db|2--xxxxx-2--xxxxx---------------------2--xxxxx-2--xxxxx--------------------|

eb|---------------------------------------------------------------------------|
Bb|---------------------------------------------------------------------------|
Gb|------------------5--xxxxxx-7--xxxxxx-------------------5---------7--------|
Db|2--xxxxx-2--xxxxx-5--xxxxxx-7--xxxxxx-2--xxxxx-2--xxxxx-5---------7--------|
Ab|2--xxxxx-2--xxxxx-3--xxxxxx-5--xxxxxx-2--xxxxx-2--xxxxx-3---------5--------|
Db|2--xxxxx-2--xxxxx---------------------2--xxxxx-2--xxxxx--------------------|

Lead Guitar (1:28)
eb|---------------------------------------------------------------------------|
Bb|---------------------------------------------------------------------------|
Gb|11h12-11h12-11h12-11h12-11h12-11h12-11h12-11h12----------------------------|
Db|---------------------------------------------------------------------------|
Ab|---------------------------------------------------------------------------|
Eb|---------------------------------------------------------------------------|

eb|14h15-14h15-14h15-14h15-14h15-14h15-14h15-14h15----------------------------|
Bb|---------------------------------------------------------------------------|
Gb|---------------------------------------------------------------------------|
Db|---------------------------------------------------------------------------|
Ab|---------------------------------------------------------------------------|
Eb|---------------------------------------------------------------------------|

Rhythym Guitar (1:32)
eb|---------------------------------------------------------------------------|
Bb|---------------------------------------------------------------------------|
Gb|---------------------------------------------------------------------------|
Db|222222222222---------------------------------------------------------------|
Ab|222222222222---------------------------------------------------------------|
Eb|222222222222---------------------------------------------------------------|

Lead Guitar (1:35)
eb|---------------------------------------------------------------------------|
Bb|--------15151515--------15151515--------13131313--------13131313-----------|
Gb|12121212--------12121212--------12121212--------12121212--------12121212---|
Db|---------------------------------------------------------------------------|
Ab|---------------------------------------------------------------------------|
Eb|---------------------------------------------------------------------------|

eb|---------------------------------------------------------------------------|
Bb|12121212--------12121212---------------------------------------------------|
Gb|--------12121212--------11-12-11-12-14-12-11-12-11-12-11-12-14-12-11-12----|
Db|---------------------------------------------------------------------------|
Ab|---------------------------------------------------------------------------|
Eb|---------------------------------------------------------------------------|

eb|----------------14141414---------------------------------------------------|
Bb|--------15151515--------15151515--------13131313--------13131313-----------|
Gb|12121212------------------------12121212--------12121212--------12121212---|
Db|---------------------------------------------------------------------------|
Ab|---------------------------------------------------------------------------|
Eb|---------------------------------------------------------------------------|

eb|---------------------------------------------------------------------------|
Bb|12121212--------12121212---------------------------------------------------|
Gb|--------12121212--------11-12-11-12-14-12-11-12-11-12-11-12-14-12-11-12----|
Db|---------------------------------------------------------------------------|
Ab|---------------------------------------------------------------------------|
Eb|---------------------------------------------------------------------------|

Rhythym (1:35)
eb|---------------------------------------------------------------------------|
Bb|---------------------------------------------------------------------------|
Gb|55555555555555557777777777777777-------------------------------------------|
Db|5555555555555555777777777777777722222-22222244445555555557777777-----------|
Ab|3333333333333333555555555555555522222-22222244445555555557777777-----------|
Db|--------------------------------22222-22222244445555555557777777-----------|
                                   ....

eb|---------------------------------------------------------------------------|
Bb|---------------------------------------------------------------------------|
Gb|55555555555555557777777777777777-------------------------------------------|
Db|5555555555555555777777777777777722222-22222244445555555557777777-----------|
Ab|3333333333333333555555555555555522222-22222244445555555557777777-----------|
Db|--------------------------------22222-22222244445555555557777777-----------|
                                   ....

Rhythym Guitar (1:54)
eb|-------------------------------------------------------------------------------|
Bb|-------------------------------------------------------------------------------|
Gb|5-5-5-5-5-5-5-5-7-7-7-7-7-7-7-7-11-11-11-11-12-12-12-12-14-14-14-14-16-16-16-16|
Db|5-5-5-5-5-5-5-5-7-7-7-7-7-7-7-7--x--x--x--x--x--x--x--x--x--x--x--x--x--x--x--x|
Ab|3-3-3-3-3-3-3-3-5-5-5-5-5-5-5-5--9--9--9--9-10-10-10-10-12-12-12-12-14-14-14-14|
Db|-------------------------------------------------------------------------------|

eb|-------------------------------------------------------------------------------|
Bb|-------------------------------------------------------------------------------|
Gb|5-5-5-5-5-5-5-5-7-7-7-7-7-7-7-7-11-11-11-11-12-12-12-12-14-14-14-14-16-16-16-16|
Db|5-5-5-5-5-5-5-5-7-7-7-7-7-7-7-7--x--x--x--x--x--x--x--x--x--x--x--x--x--x--x--x|
Ab|3-3-3-3-3-3-3-3-5-5-5-5-5-5-5-5--9--9--9--9-10-10-10-10-12-12-12-12-14-14-14-14|
Db|-------------------------------------------------------------------------------|

Lead Guitar (2:14)
eb|10-----10-----10---10-----10-----10---10-----10-----10---10-----10-----10--|
Bb|---7-8----7-8----7----7-8----7-8----7----7-8----7-8----7----7-8----7-8----7|
Gb|---------------------------------------------------------------------------|
Db|---------------------------------------------------------------------------|
Ab|---------------------------------------------------------------------------|
Eb|---------------------------------------------------------------------------|

eb|10-----10-----10---10-----10-----10---10-----10-----10---10-----10-----10--|
Bb|---7-8----7-8----7----7-8----7-8----7----7-8----7-8----7----7-8----7-8----7|
Gb|---------------------------------------------------------------------------|
Db|---------------------------------------------------------------------------|
Ab|---------------------------------------------------------------------------|
Eb|---------------------------------------------------------------------------|

Rhythym Guitar (2:14)
eb|-------------------------------------------------------------------------------|
Bb|-------------------------------------------------------------------------------|
Gb|5-5-5-5-5-5-5-5-7-7-7-7-7-7-7-7-11-11-11-11-12-12-12-12-14-14-14-14-16-16-16-16|
Db|5-5-5-5-5-5-5-5-7-7-7-7-7-7-7-7--x--x--x--x--x--x--x--x--x--x--x--x--x--x--x--x|
Ab|3-3-3-3-3-3-3-3-5-5-5-5-5-5-5-5--9--9--9--9-10-10-10-10-12-12-12-12-14-14-14-14|
Db|-------------------------------------------------------------------------------|

eb|-------------------------------------------------------------------------------|
Bb|-------------------------------------------------------------------------------|
Gb|5-5-5-5-5-5-5-5-7-7-7-7-7-7-7-7--9--9--9--9-11-11-11-11-12-12-12-12-14-14-14-14|
Db|5-5-5-5-5-5-5-5-7-7-7-7-7-7-7-7--x--x--x--x--x--x--x--x--x--x--x--x--x--x--x--x|
Ab|3-3-3-3-3-3-3-3-5-5-5-5-5-5-5-5--7--7--7--7--9--9--9--9-10-10-10-10-12-12-12-12|
Db|-------------------------------------------------------------------------------|

Lead Guitar (2:33)
eb|------------------------15-15-15-15----------------------------------------|
Bb|------------15-15-15-15----------------------------------------------------|
Gb|12-12-12-12----------------------------------------------------------------|
Db|---------------------------------------------------------------------------|
Ab|---------------------------------------------------------------------------|
Eb|---------------------------------------------------------------------------|

Lead Guitar (2:35)
eb|---------------------------------------------------------------------------|
Bb|--------15151515--------15151515--------13131313--------13131313-----------|
Gb|12121212--------12121212--------12121212--------12121212--------12121212---|
Db|---------------------------------------------------------------------------|
Ab|---------------------------------------------------------------------------|
Eb|---------------------------------------------------------------------------|

eb|---------------------------------------------------------------------------|
Bb|12121212--------12121212---------------------------------------------------|
Gb|--------12121212--------11-12-11-12-14-12-11-12-11-12-11-12-14-12-11-12----|
Db|---------------------------------------------------------------------------|
Ab|---------------------------------------------------------------------------|
Eb|---------------------------------------------------------------------------|

eb|----------------14141414---------------------------------------------------|
Bb|--------15151515--------15151515--------13131313--------13131313-----------|
Gb|12121212------------------------12121212--------12121212--------12121212---|
Db|---------------------------------------------------------------------------|
Ab|---------------------------------------------------------------------------|
Eb|---------------------------------------------------------------------------|

eb|---------------------------------------------------------------------------|
Bb|12121212--------12121212---------------------------------------------------|
Gb|--------12121212--------11-12-11-12-14-12-11-12-11-12-11-12-14-12-11-12----|
Db|---------------------------------------------------------------------------|
Ab|---------------------------------------------------------------------------|
Eb|---------------------------------------------------------------------------|

Rhythym (2:35)
eb|---------------------------------------------------------------------------|
Bb|---------------------------------------------------------------------------|
Gb|55555555555555557777777777777777-------------------------------------------|
Db|5555555555555555777777777777777722222-22222244445555555557777777-----------|
Ab|3333333333333333555555555555555522222-22222244445555555557777777-----------|
Db|--------------------------------22222-22222244445555555557777777-----------|
                                   ....

eb|---------------------------------------------------------------------------|
Bb|---------------------------------------------------------------------------|
Gb|55555555555555557777777777777777-------------------------------------------|
Db|5555555555555555777777777777777722222-22222244445555555557-7-7-7-----------|
Ab|3333333333333333555555555555555522222-22222244445555555557-7-7-7-----------|
Db|--------------------------------22222-22222244445555555557-7-7-7-----------|
                                   ....

Rythym Guitar (2:55)
eb|-------------------------------------------------------------------------------|
Bb|-------------------------------------------------------------------------------|
Gb|5-5-5-5-5-5-5-5-7-7-7-7-7-7-7-7--9--9--9--9-11-11-11-11-12-12-12-12-14-14-14-14|
Db|5-5-5-5-5-5-5-5-7-7-7-7-7-7-7-7--x--x--x--x--x--x--x--x--x--x--x--x--x--x--x--x|
Ab|3-3-3-3-3-3-3-3-5-5-5-5-5-5-5-5--7--7--7--7--9--9--9--9-10-10-10-10-12-12-12-12|
Db|-------------------------------------------------------------------------------|

Lead Guitar (3:05)
eb|10-----10-----10---10-----10-----10----------------------------------------|
Bb|---7-8----7-8----7----7-8----7-8----7--------------------------------------|
Gb|---------------------------------------------------------------------------|
Db|---------------------------------------------------------------------------|
Ab|---------------------------------------------------------------------------|
Eb|---------------------------------------------------------------------------|

Rhythym Guitar (3:05)
eb|---------------------------------------------------------------------------|
Bb|---------------------------------------------------------------------------|
Gb|5-5-5-5-5-5-5-5-7-7-7-7-7-7-7-7--------------------------------------------|
Db|5-5-5-5-5-5-5-5-7-7-7-7-7-7-7-7-2-----------------------------2--2--2-2----|
Ab|3-3-3-3-3-3-3-3-5-5-5-5-5-5-5-5-2-----------------------------2--2--2-2----|
Db|--------------------------------2-let-this-note-ring----------2--2--2-2----|
                                                                 .  .  . .

| /  slide up
| \  slide down
| h  hammer-on
| p  pull-off
| ~  vibrato
| +  harmonic
| x  Mute note
| .  Palm Mute
===============================================================================





Comments


Popular Just Surrender tabs & chords
I Can Barely Breathe Chords
In Your Silence Chords
On My Own Chords
Payback 1 Chords
Of All We've Known Tabs
Tell Me Everything Tabs
Tell Me Everything 2 Tabs
Your Life And Mine Tabs
Something That Im Not Ukulele
Take Me Home Ukulele


Song lyrics



↑ Back to top | Tablatures and chords are parodies/interpretations of the original songs. You may use it for private study, scholarship, research or language learning purposes only
© 2014 AZChords.com Contact us | Privacy policy | DMCA | Add/correct tabs | Request tabs | Top 50 tabs