» » »

Just Surrender, Crazy Tabs (ver.1)

Artists:  A B C D E F G H I J K L M N O P Q R S T U V W X Y Z # 

Crazy Tabs (ver.1)

Just Surrender Tabs
 Rating:
4/5 (4 votes)
Crazy lessons Tabs too difficult? Try these video lessons and learn fast
                Band: Just Surrender

Enjoy!

Tuning: Half Step Down

Verse
Guitar 1
e---0~--------0~-----------7--7--7--7--4--4--4--4------|
b-----4~---------4~----------5--5--5--5--5--5--5--5----|
g-------6~----------2~---------------------------------|
d------------------------------------------------------|
a------------------------------------------------------|
e------------------------------------------------------|
                           "All I eve needed..."
Guitar 2
e------0~------0~------0~----------------------------|
b------0~------0~------0~----------------------------|
g------6~------2~------6~-----------------4----------|
d------6~------2~------6~----------2------4----------|
a------4~------0~------4~----------2------2----------|
e----------------------------------0-----------------|
"Waking Up...."                   "All I ever needed..."

Pre Chorus
Guitar 1
e-----------------------------------------------------------------------|
b-----------------------------------------------------------------------|
g---9--9--9-----9--9--9-----9--9--9----9--9--9----9--9--9----9--9--9----|
d-----9--9--9-----9--9--9-----9--9--9----9--9--9----9--9--9----9--9--9--|
a--(0)-------------------------------(0)--------------------(9)---------|
e-------------(7)---------(9)--------------------(7)--------------------|

Guitar 2
e---------------------------------------|
b---------------------------------------|
g------2~----4~----6~----2~----4~-------|
d------2~----4~----6~----2~----4~----6~-|
a------0~----2~----4~----0~----2~----6~-|
e------------------------------------4~-|

Chorus
Guitar 1
played something like this:
e------9h-7h-----------9h-7h--------------|
b--------------9h10p9---------9h10p7------|
g-----------------------------------------|
d-----------------------------------------|
a-----------------------------------------|
e-----------------------------------------|

Guitar 2
e----------------------------|
b----------------------------|
g------6-------2---4---------|
d------6---2---2---4---------|
a------4---2---0---2---------|
e----------0-----------------|
"If you could be the one..."

Guitar 1
Hard to hear so you can strum something like this:
e---------------------------|
b------5---5---5------------|
g------4---4---4------------|
d------2---x---2------------|
a------0---2---4------------|
e---------------------------|

Guitar 2
e-----------------------------------------------|
b-----------------------------------------------|
g------22-2---44-4---66-6-4---22-2---44-4---6---|
d------22-2---44-4---66-6-4---22-2---44-4---6---|
a------00-0---22-2---44-4-2---00-0---22-2---4---|
e-----------------------------------------------|
"I'm going crazy (crazy)..."

Verse
Pre Chorus
Chorus 2

Chorus 2 ends like this:
Guitar 1
e------------------7------------|
b----------5-----5--------------|
g------4-6---4-6----------------|
d-------------------------------|
a-------------------------------|
e-------------------------------|

Guitar 2
e---------------------------------------------------------|
b---------------------------------------------------------|
g------666-6-6-666-6-6---222-2-2-2---4-4-4---4-4---444----|
d------666-6-6-666-6-6---222-2-2-2---4-4-4---4-4---444----|
a------444-4-4-444-4-4---000-0-0-0---2-2-2---2-2---222----|
e---------------------------------------------------------|

Bridge
Guitar 1 (also repeated through Outro)
w/ Phaser effect riff repeated
e----------7-4-----------------------|
b---------------5p4h5p4--------------|
g------4h6----6--------4-------------|
d------------------------------------|
a------------------------------------|
e------------------------------------|
"If  you could be the one..."
            
Submit corrections

comments powered by Disqus
↑ Back to top | Just Surrender Tabs for Crazy. Lyrics for acoustic guitar and electric guitar. Tablatures and chords are parodies/interpretations of the original songs. You may use it for private study, scholarship, research or language learning purposes only