>
 >
Carried Away

Carried Away Chords

Just Surrender - Carried Away chords, tabs, tablatures, lyrics

Guitar lessons | Add/correct | Request | Top 50 tabs Artists:  A B C D E F G H I J K L M N O P Q R S T U V W X Y Z 0-9

Carried Away Chords – Just Surrender

CD, Sheet music, Poster

Do you like Carried Away? Share with your friends now
ChordsUkulele
Just Surrender
Phoenix
2010

Key: G

Tuning: Standard EADGBe

Chords used:
G -    320033
D -    xx0232
Em -   022000
C -    x32010 or Cadd9 - x320033
D/F# - 2x023x
Am -   x02210
G/B -  x2x003


Intro: G--C-C-D-G-- x2

Guitar 2:
         G                C               C         D               G
e|----------------|----------------|------------|--------|-----------------------|
B|----------------|--------------7-|-8----------|--------|-10--12-10----10-------|
G|-7h9p7---7------|-----------7----|----7h9p7---|-7------|-----------12----12-11-|
D|-------9---9----|-7--9-----------|----------9-|---9----|-----------------------|
A|-------------10-|-------10-------|------------|-----10-|-----------------------|
E|----------------|----------------|------------|--------|-----------------------|

        G                C                C              D                  G
e|---------------|---------------|----------------|-------------|-------------------15-|
B|-12--12-10-----|-12--13-10--12-|-13-15-13-12-13-|-12----12----|----------12----------|
G|------------12-|---------------|----------------|----14----12-|-------12----14-12----|
D|---------------|---------------|----------------|-------------|-12-14----------------|
A|---------------|---------------|----------------|-------------|----------------------|
E|---------------|---------------|----------------|-------------|----------------------|


Verse 1:
G
  Ironically enough
     C
I've never been 
              C
too good with words
  D           G
I know it's absurd
          G
But I can never 
               C
find a perfect way
   C
To say the things
  D       G
I want to say


Refrain 1:
   Em                D
If you'd give me the chance
            C
To let this kiss say
        G
All the things 
         D/F#    Em
locked behind my lips
I promise I could 
D         C            D
sweep you off your feet


Chorus:
G
  Let's you and me 
    D        C      D
get carried away now
(Carried away now)
G
No holding back
      D      C
we're on our way now
                  D
(Carried away now)
Em                C
  Let's see where this 
night will take us
G                   D
  There's no reason left 
                 Am
for us to stick around
I never want to 
     G/B  C
come back down
              D
Tonight's our last 
night on the ground


Post Chorus: G--C-C-D-G-- x2

Guitar 2:
         G                C               C          D               G
e|----------------|----------------|------------|--------|-----------------------|
B|----------------|--------------7-|-8----------|--------|-10--12-10----10-------|
G|-7h9p7---7------|-----------7----|----7h9p7---|-7------|-----------12----12-11-|
D|-------9---9----|-7--9-----------|----------9-|---9----|-----------------------|
A|-------------10-|-------10-------|------------|-----10-|-----------------------|
E|----------------|----------------|------------|--------|-----------------------|

        G                C                C              D                  G
e|---------------|---------------|----------------|-------------|-------------------15-|
B|-12--12-10-----|-12--13-10--12-|-13-15-13-12-13-|-12----12----|----------12----------|
G|------------12-|---------------|----------------|----14----12-|-------12----14-12----|
D|---------------|---------------|----------------|-------------|-12-14----------------|
A|---------------|---------------|----------------|-------------|----------------------|
E|---------------|---------------|----------------|-------------|----------------------|


Verse 2:
G                         C
  The funny thing about a kiss
                    C
Is that it's never enough
        D          G
You can call on my bluff
          G
But I am trembling 
                  C
      C
And I know that you 
     D       G
must feel it too


Refrain 2:
   Em                D
If you'd give me the chance
            C
To let this kiss say
        G
All the things locked 
  D/F#    Em
behind my lips
            D
I promise I could 
          C          D
take your breath away


(Repeat Chorus)


Guitar Solo: 
C--G--D--Em-D-C- x2
Em-D-C--Em-D-C--C--D--

Guitar 2: Solo
                C                          G                       D
e|--------------------------------|-----------------|-2h3--2-0-2--0---0-----------|
B|----------------------------0---|-3-0--0----------|---------------3----1-3-1----|
G|----------------------0---0---0-|-----2---2-0-2-0-|---------------------------0-|
D|-------------2------2---2-------|-----------------|-----------------------------|
A|---0-2-3-2-3----2-3-------------|-----------------|-----------------------------|
E|-3------------------------------|-----------------|-----------------------------|

     Em      D     C
e|-------|-------|---|
B|-3-0---|-0-----|---|
G|-----0-|---2-0-|-2-|
D|-------|-------|---|
A|-------|-------|---|
E|-------|-------|---|

                 C                                      G
e|---------------------------------|-----------------------------------------|
G|-0-0-0-0-0-0-0-0-0-0-0-0-0-0-0-0-|--0--0--0--0--0--0--0--0-0-0-0-0-0-0-0-0-|
D|---------------------------------|-----------------------------------------|
A|---------------------------------|-----------------------------------------|
E|---------------------------------|-----------------------------------------|

                       D
e|-------------------------------------------------|
B|-15-15-15-15-13-13-13-13-12-12-12-12-10-10-10-10-|
G|--0--0--0--0--0--0--0--0--0--0--0--0--0--0--0--0-|
D|-------------------------------------------------|
A|-------------------------------------------------|
E|-------------------------------------------------|

     Em      D     C     Em      D     C          C                D
e|-------|-------|---|-------|-------|---|-----------------|---------------|
B|-------|-------|---|-12-12-|-10-10-|-8-|-----8--8----8---|---7---7---7---|
G|-12-12-|-11-11-|-9-|-12-12-|-11-11-|-9-|-7h9---9---9---9-|-7---7---7---7-|
D|-------|-------|---|-------|-------|---|-----------------|---------------|
A|-------|-------|---|-------|-------|---|-----------------|---------------|
E|-------|-------|---|-------|-------|---|-----------------|---------------|


(Repeat Chorus)


Outro:

G--C-C-D-G(hold)

Guitar 2: b means bend 
         G                C               C          D               G
e|----------------|----------------|------------|--------|-----------------------|
B|----------------|--------------7-|-8----------|--------|-10--12-10----10-------|
G|-7h9p7---7------|-----------7----|----7h9p7---|-7------|-----------12----12-11-|
D|-------9---9----|-7--9-----------|----------9-|---9----|-----------------------|
A|-------------10-|-------10-------|------------|-----10-|-----------------------|
E|----------------|----------------|------------|--------|-----------------------|

        G                C               C         D     G
e|---------------|---------------|---------------|-----|----|
B|-12--12-10-----|-12--13-10--12-|------12-13-14-|-15b-|----|
G|------------12-|---------------|-14b-----------|-----|-12-|
D|---------------|---------------|---------------|-----|----|
A|---------------|---------------|--slow-beat----|-----|----|
E|---------------|---------------|---------------|-----|----|





Comments


Popular Just Surrender tabs & chords
Crazy Chords
I Can Barely Breathe 1 Chords
If I Wanted To Cuddle I'd Buy A Teddy Bear Chords
Is There No Truth In Beauty? Chords
Payback Chords
Payback 2 Chords
Forgotten Not Forgiven 2 Tabs
In Your Silence Tabs
Payback Ukulele
Something That Im Not Ukulele


Song lyrics



↑ Back to top | Tablatures and chords are parodies/interpretations of the original songs. You may use it for private study, scholarship, research or language learning purposes only
© 2014 AZChords.com Contact us | Privacy policy | DMCA | Add/correct tabs | Request tabs | Top 50 tabs