» » »

Just Jinjer, Remember Me Chords (ver.1)

Artists:  A B C D E F G H I J K L M N O P Q R S T U V W X Y Z # 

Remember Me Chords (ver.1)

Just Jinjer Tabs
Rating:
0/5 (0 votes)
Remember Me lessons Tabs too difficult? Try these video lessons and learn fast
                -------------------------
JUST JINGER - REMEMBER ME
-------------------------

CAPO 1 FRET - All chords relative to Capo!

Listen to the song where they play palm muted, and where open chords and so forth.
I have tried to transcribe the licks as well, so bear with me :)

CHORD PATTERNS
--------------
C       x32010
Em      022000
F       133211
Dm      x57765
G       355433 (may sound better when played like 320033)
G#sus4  3355xx (played only in pre-chorus crescendo)
Bb      x13331
        

* lick on C             ** lick on C
e-|-----------------|- -|-------------------|-
B-|-----------------|- -|-------------------|-
G-|-----------------|- -|-------------------|-
D-|-5-5-5-5-------5-|- -|-5-5-5-5-----------|-
A-|-3-3-3-3-3-2-3---|- -|-3-3-3-3-3h5-3-2-3-|-
E-|-----------------|- -|-------------------|-

+ lick on Em              + lick on C    
e-|-------------------|- -|-------------------|-
B-|-------------------|- -|-------------------|-
G-|-------------------|- -|-------------------|-
D-|-2-2-2-2-----------|- -|-5-5-5-5-----------|-
A-|-0-0-0-0-3/5-3-2---|- -|-3-3-3-3-3/5-3-2---|-
E-|-----------------3-|- -|-----------------5-|-


C       C       C       C*

C**                 Em+
Please tell me Jesus, was I bad?
F                    C*
Did I let go of your hand?
C**            E+
I felt forsaken, felt alone
F                      C      Bb        C*
Felt a long way off from home
C+                     Em+
I've got some questions 'bout Your dad
F                           C        Bb
And that place you call the promised land


Dm                            G
Can I come in? Can I still get there?
Dm                            Absus4         G  
I know it's hard, but I'll search in every nook and corner


Dm               G
Please send me directions
Dm               G    
Please tell me where to turn
Dm               G                           C
And if I make the wrong decisions, remember me


C                 Em
I know I stumbled, I fell down
F                     C*
Like broken pieces on the ground
C+                 Em+     
And from that angle, I could see
F                      C     Bb
You sat always next to me


Dm               G
Please send me directions
Dm               G    
Please tell me where to turn
Dm               G                           C
And if I make the wrong decisions, remember me


SOLO:
G                          F
-|------------------------|---------------------|-
-|----------------------8-|-6---5---------------|-
-|-4---5-7--4--5--7-(7)---|---------7---5/7/5-4-|-
-|------------------------|---------------------|-
-|------------------------|---------------------|-
-|------------------------|---------------------|-
G                          F
-|------------------------|--------------8-----(8)-|-
-|---------------------8--|---10/8/6---6---6-5-----|-
-|-4---5--7---4--5--7-----|------------------------|-
-|------------------------|------------------------|-
-|------------------------|------------------------|-
-|------------------------|------------------------|-

C       C*

C                  Em
Regained my senses
           F                        C        (Bb)        
Found a way to make the most ouf of each day


Dm                            G
Can I come in? Can I still get there?
Dm                            Absus4         G  
I know it's hard, but I'll search in every nook and corner


Dm               G
Please send me directions
Dm               G    
Please tell me where to turn
Dm               G                           C
And if I make the wrong decisions, remember me
Bb           C          Bb            Dm
Ooo Remember me... oooooh.... I feel down
G            C
Ooh Remember ME
            
Submit corrections

comments powered by Disqus
↑ Back to top | Just Jinjer Chords for Remember Me. Lyrics for acoustic guitar and electric guitar. Tablatures and chords are parodies/interpretations of the original songs. You may use it for private study, scholarship, research or language learning purposes only