» » »

Just Jinjer, No Idea Tabs (ver.1)

Artists:  A B C D E F G H I J K L M N O P Q R S T U V W X Y Z # 

No Idea Tabs (ver.1)

Just Jinjer Tabs
Rating:
4/5 (1 vote)
No Idea lessons Tabs too difficult? Try these video lessons and learn fast
                

No Idea by Just Jinger

Chords:
D    :000232
A    :002220
F#m  :244222
F    :133211
C#m  :446654
E    :022100


Intro: Tab 1

|---0---------0---5h7-5------------------------|
|---5-5-7-5---5-5---------3-3-3-3-3 s 5-6-8-6--|
|----------------------------------------------|
|----------------------------------------------|
|----------------------------------------------|
|----------------------------------------------|


|---0----------------0-------5----55------|
|---5-5-5-5-7-5-7-5--5-5-5-5---55----55---|
|-----------------------------------------|
|-----------------------------------------|
|-----------------------------------------|
|-----------------------------------------|


Tab 1.
I just want to clear my mind of all the sin and the transgressions of
mankind.


D                 A   D             A
 Was there all of this before I was born?
F#m                 D  F#m                D
Can you read my story, can you read my story?
F                         A
I want to live my life in peace.


A              C#m      D      F            A
I just want to clear my dreams of all that lies
            E             A
behind the truth of our extremes.


D                 A   D             A
 Was there all of this before I was born?
F#m                 D  F#m                D
Can you read my story, can you read my story?
F                         A
I want to live my life in peace.


Solo: I did work this out but I can't find the paper I did it on.Sorry.


D                 A   D             A
 Was there all of this before I was born?
F#m                 D  F#m                D
Can you read my story, can you read my story?
F                         A                C#m    D    F    A    E     A
I want to live my life in peace.
            
Submit corrections

comments powered by Disqus
↑ Back to top | Just Jinjer Tabs for No Idea. Lyrics for acoustic guitar and electric guitar. Tablatures and chords are parodies/interpretations of the original songs. You may use it for private study, scholarship, research or language learning purposes only