» » »

Just Jinger, Shallow Waters Chords (ver.1)

Artists:  A B C D E F G H I J K L M N O P Q R S T U V W X Y Z # 

Shallow Waters Chords (ver.1)

Just Jinger Tabs
 Rating:
4/5 (4 votes)
Shallow Waters lessons Tabs too difficult? Try these video lessons and learn fast
1
                Shallow waters by Just Jinger

This is a great song by,in my opinion,South Africas' greatest band.

Chords:
C :032010
Am:002210
G :320001
Dm:000231

Intro:

   C                              Am
|------------------------------|----------------------------------|
|-----0 h 1-------0 h 1--------|-------0 h 1--------0 h 1---0h1---|
|------------------------------|----------------------------------|
|------------------------------|----2------------2----------------|
|--3-----------3-----------3---|--0------------0------------------|
|------------------------------|----------------------------------|

   G                                 Dm
|---------------------------------|-------0 h 1------0h1-3-1-0----|
|-------0 h 1-------0 h 1---1h3---|----------------------------3--|
|---------------------------------|----2--------------------------|
|----0-----------0----------------|--0------------0---------------|
|---------------------------------|-------------------------------|
|--3-----------3------------------|-------------------------------|


Lyrics:

C               Am                  G     Dm
I'm leaving, tomorrow, and I don't know, why.
C                                   Am
There's something that's not right with my soul,
   G               Dm
I have no goal, I have no goal.

                       C
I'm leaving in shallow waters,
                     Am
I'm laeving all my dreams of you.
           G               Dm
I can't go on. I want to run away.

                  C       Am
I think I'll go today, tomorrow
                G                        Dm
Well, it won't help me at all. It won't help me at all.
C                                      Am
There's something that I told you and you don't know,
            G                   Dm
That it's true, oh, that it's true now.

                         C
I'm leaving in shallow waters,
                     Am
I'm leaving all my dreams of you.
            G             Dm
I can't go on. I want to run away.

Am     G  Dm
Ah wo ah ah x2

                         C
I'm leaving in shallow waters,
         Am
All my dreams of you
           G              Dm
I can't go on. I want to run away, run away

                  C                   Am
I think I'll go today, cos you know tomorrow,
          G                        Dm
It won't help me at all, it won't help me at all
          C              Am
Shallow waters, all my dreams of you
               G                           Dm       C
And I can't go on, I'm leaving in shallow water.
            
Submit corrections

comments powered by Disqus
↑ Back to top | Just Jinger Chords for Shallow Waters. Lyrics for acoustic guitar and electric guitar. 1 Tablatures and chords are parodies/interpretations of the original songs. You may use it for private study, scholarship, research or language learning purposes only