» » »

Justin Timberlake, What Goes Around Tabs (ver.7)

Artists:  A B C D E F G H I J K L M N O P Q R S T U V W X Y Z # 

What Goes Around Tabs (ver.7)

Justin Timberlake Tabs
 Rating:
4/5 (4 votes)
What Goes Around lessons Tabs too difficult? Try these video lessons and learn fast
1
                This is a Tab I made for 2 guitars but if you want, you can play it solo. (Under each 
I'll wright which voice (first or second) you should play if you'll play solo)

INTRO

Guitar 1
|--5-3-5------------5-3-5------------5-3-5-------------5-3-5-5-3-5----------|
|----------5-5-3--3--------5-5-3--3---------5-5-3--3------------------------|
|---------------------------------------------------------------------------|
|---------------------------------------------------------------------------|
|---------------------------------------------------------------------------|
|---------------------------------------------------------------------------|
Guitar 2
|--5-3-5------------5-3-5------------5-3-5-------------5-3-5-5-3-5----------|
|----------5-5-3--3--------5-5-3--3---------5-5-3--3------------------------|
|---------------------------------------------------------------------------|
|---------------------------------------------------------------------------|
|---------------------------------------------------------------------------|
|---------------------------------------------------------------------------|
(1 or 2 voice)

Guitar 1
|------------------------------------------------------5-3-5-5-3-5----------|
|---------------------------------------------------------------------------|
|-------------------------0-------------------------------------------------|
|-----------------------------------2---0---2---0---------------------------|
|--0---------------3--------------------------------------------------------|
|---------------------------------------------------------------------------|
Guitar 2
|-----------0----------------0----------------------------------------------|
|-----------1-------------------3-3------------0----3-3----------------3----|
|--------2---------------0------0-0-----------------2-2---------------------|
|-----2---------------2----------------------0-------------------------4----|
|--0---------------3----------------------2---------------------------------|
|---------------------------------------3-----------------------------------|
(1 voice) Play this 4 times

VERSE

Guitar 1
	(a)			(C)			(g)			(D)
|----------------------------------------------------------------------3----|
|-----------1-----------------1----------------3------------------2---------|
|--------2-----------------0----------------0------------------3------------|
|-----2-----------------2----------------0------------------0---------------|
|--0-----------------3------------------------------------------------------|
|-------------------------------------3-------------------------------------|
Guitar 2
|-----------0----------------0----------------------------------------------|
|-----------1-------------------3-3------------0----3-3----------------3----|
|--------2---------------0------0-0-----------------2-2---------------------|
|-----2---------------2----------------------0-------------------------4----|
|--0---------------3----------------------2---------------------------------|
|---------------------------------------3-----------------------------------|
(1 or 2 voice, but I would say 1 sounds better solo) Play this one 4 times.

Guitar 1
|---------------------------------------------------------------------------|
|---------------------------------------------------------------------------|
|---------------------------------------------------------------------------|
|---------------------------------------------------------------------------|
|--0---------------3--------------------------------------------------------|
|---------------------------------------3-----------------------------------|
Guitar 2
|-----------0----------------0----------------------------------------------|
|-----------1-------------------3-3------------0----3-3----------------3----|
|--------2---------------0------0-0-----------------2-2---------------------|
|-----2---------------2----------------------0-------------------------4----|
|--0---------------3----------------------2---------------------------------|
|---------------------------------------3-----------------------------------|
(2 voice or the chords as above) Play this one 2 times


Guitar 1
	(a)			(C)			(g)			(D)
|---------------------------------------------------------------------3-----|
|-----------1-----------------1-----------------3------------------2--------|
|--------2-----------------0-----------------0------------------3-----------|
|-----2-----------------2-----------------0------------------0--------------|
|--0-----------------3------------------------------------------------------|
|--------------------------------------3------------------------------------|
Guitar 2
|-----------0----------------0----------------------------------------------|
|-----------1-------------------3-3------------0----3-3----------------3----|
|--------2---------------0------0-0-----------------2-2---------------------|
|-----2---------------2----------------------0-------------------------4----|
|--0---------------3----------------------2---------------------------------|
|---------------------------------------3-----------------------------------|
(1 or 2 voice) Play it 4 times

WHAT GOES AROUND PART (play it 4 times, when you've done start from verse part again)
Guitar 1
	(a)			(C)			(g)			(D)
|----------------------------------------------------------------------3----|
|-----------1-----------------1----------------3------------------2---------|
|--------2-----------------0----------------0------------------3------------|
|-----2-----------------2----------------0------------------0---------------|
|--0-----------------3------------------------------------------------------|
|-------------------------------------3-------------------------------------|
Guitar 2
|--5-5-5-5-0-0-0-0----------------------------------------------------------|
|------------------1-1-1-1-------------3--1--3----1-0-----------------------|
|--------------------------2-2-2-2-0-2----------------2---------------------|
|---------------------------------------------------------------------------|
|---------------------------------------------------------------------------|
|---------------------------------------------------------------------------|
(1 voice, but you could try a more complicated 2 voice verson:
|--5-5-5-5-0-0-0-0----------------------------------------------------------|
|------------------1-1-1-1-------------3--1--3----1-0-----------------------|
|--------------------------2-2-2-2-0-2----------------2---------------------|
|--------------------------------0------------------------------------------|
|--------0-------3----------------------------------------------------------|
|------------------------3--------------------------------------------------|
            
Submit corrections

comments powered by Disqus
↑ Back to top | Justin Timberlake Tabs for What Goes Around. Lyrics for acoustic guitar and electric guitar. 1 Tablatures and chords are parodies/interpretations of the original songs. You may use it for private study, scholarship, research or language learning purposes only