» » »

What Goes Around Tabs (ver.6)

Artists:  A B C D E F G H I J K L M N O P Q R S T U V W X Y Z # 

What Goes Around Tabs (ver.6)

Justin Timberlake
Rating:
0/5 (0 votes)

Hard to play? Try these video lessons and learn fast.
                Guitar 1-Intro
e|------------------------------|
B|---10p8--10-------------------|
G|-------------9p10--9--7---7---|
D|------------------------------|
A|------------------------------| x3
E|------------------------------|

e|------------------------------|
B|--10p8---10--10p8---10p8--10--|
G|------------------------------|
D|------------------------------|
A|------------------------------|
E|------------------------------|

Guitar 2-Intro
e|------------------------------|
B|------------------------------|
G|------------------------------|
D|----7p5--7--------------------|
A|-------------7p8---7--5---5---| x3
E|------------------------------|

e|------------------------------|
B|------------------------------|
G|------------------------------|
D|---7p5---7----7p5----7p5---7--|
A|------------------------------|
E|------------------------------|


Guitar 1-Main Riff
e|------------------0-----------------------|
B|---------1----------3-3--------0----------|
G|-------2--------0------------0---2-2------|
D|-----2--------2------------0------------4-|
A|---0--------3-----------------------------|
E|-------------------------3----------------|

Guitar 2-Behind Main Riff
e|---------------3---0----------------------|
B|---------1----------------3---------------|
G|---2--------------------------------------|
D|----------------------------------------4-|
A|------------------------------------------|
E|------------------------------------------|

Interlude
e|------------------------------------------|
B|--13------15------17----------------------|
G|--12------14------16----------------------|
D|--10------12------14----------------------|
A|------------------------------------------|
E|------------------------------------------|

Outro
e|--7-5-------7-5-------7-5-------7-5---7-5---|
B|------8-7-5-----8-7-5-----8-7-5-----8-----8-|
G|--------------------------------------------|
D|--------------------------------------------|
A|--------------------------------------------|
E|--------------------------------------------|
            
Hard to play? Try these video lessons and learn fast. | Correct




comments powered by Disqus
↑ Back to top | Tablatures and chords are parodies/interpretations of the original songs. You may use it for private study, scholarship, research or language learning purposes only