» » »

What Goes Around Tabs (ver.5)

Artists:  A B C D E F G H I J K L M N O P Q R S T U V W X Y Z # 

What Goes Around Tabs (ver.5)

Justin Timberlake
Rating:
0/5 (0 votes)

Hard to play? Try these video lessons and learn fast.
                Justin Timberlake - What goes around
------------------------------------

pretty sure this is the exact way to play it.
try it with a friend - need 2 guitars.


Intro/Verse
-----------

  guitar1:
e|------------------------------|
B|---10\8--10-------------------|
G|-------------9/10--9--9---9---|
D|----7\5--7--------------------|
A|-------------7/8---7--5---5---| x3
E|------------------------------|

e|------------------------------|
B|--10\8---10--10\8---10\8--10--|
G|------------------------------|
D|---7\5---7----7\5----7\5---7--|
A|------------------------------|
E|------------------------------|

guitar2:
     Am       C            G
e|------------------0-----------------------|
B|---------1----------3-3--------0----------|
G|-------2--------0------------0---2-2------|
D|-----2--------2------------0----------4---|
A|---0--------3-----------------------------|
E|-------------------------3----------------|


its just this throughout. 
listen to song and you will know where guitar 1 and/or 2 comes in.
            
Hard to play? Try these video lessons and learn fast. | Correct




comments powered by Disqus
↑ Back to top | Tablatures and chords are parodies/interpretations of the original songs. You may use it for private study, scholarship, research or language learning purposes only