» » »

Justin Timberlake, What Goes Around Tabs (ver.4)

Artists:  A B C D E F G H I J K L M N O P Q R S T U V W X Y Z # 

What Goes Around Tabs (ver.4)

Justin Timberlake Tabs
 Rating:
4/5 (4 votes)
What Goes Around lessons Tabs too difficult? Try these video lessons and learn fast
                Justin Timberlake - What Goes Around/Comes Around

My girlfriend has this CD and I heard the guitar riff and thought it was catchy.  Just 
this over and over and over.

Guitar 1 - Clean; let ring throughout
e|----------------0-----------------------|
B|------1-----------3-3------0------------|
G|----2---------0--------------2-2--------|
D|--2---------2---------------------0-----|
A|0---------3-----------------------------|
E|----------------------------------------|


You could let a 2nd guitar plays these chords as a background..
  Amin    C9            G              Dsus
e|--------------------------------------------|
B|1--------3------------3---------------3-----|
G|2--------0------------0---------------2-----|
D|2--------2------------0---------------0-----|
A|0--------3------------2---------------0-----|
E|----------------------3---------------------|
            
Submit corrections

comments powered by Disqus
↑ Back to top | Justin Timberlake Tabs for What Goes Around. Lyrics for acoustic guitar and electric guitar. Tablatures and chords are parodies/interpretations of the original songs. You may use it for private study, scholarship, research or language learning purposes only