» » »

Until The End Of Time Tabs (ver.2)

Artists:  A B C D E F G H I J K L M N O P Q R S T U V W X Y Z # 

Until The End Of Time Tabs (ver.2)

Justin Timberlake
Rating:
0/5 (0 votes)

Hard to play? Try these video lessons and learn fast.
                -------------------------------------------------------------------------------
                             Until the end of time - Justin Timberlake
-------------------------------------------------------------------------------

Tuning: standard

e|-2----0----X-------0----2-2--|
B|-3----2----3-------2----3-3--|
G|-4----2----4-------2----4-4--|
D|-X----X----5-------X----X-X--|
A|-X----X----X-------X----X-X--|
E|-3----2----0-------2----3-3--|

Get these 3 chords into your hands.
Play them in the rhytm that they are in the song.
You can now play both, the chorus and the verse and the solo comp.
Add virtuoso at singing.

| /  slide up
| \  slide down
| h  hammer-on
| p  pull-off
| ~  vibrato
| +  harmonic
| x  Mute note
===============================================================================
            
Hard to play? Try these video lessons and learn fast. | Correct




comments powered by Disqus
↑ Back to top | Tablatures and chords are parodies/interpretations of the original songs. You may use it for private study, scholarship, research or language learning purposes only