» » »

Justin Timberlake, Take It From Here Tabs (ver.1)

Artists:  A B C D E F G H I J K L M N O P Q R S T U V W X Y Z # 

Take It From Here Tabs (ver.1)

Justin Timberlake Tabs
 Rating:
4/5 (4 votes)
Take It From Here lessons Tabs too difficult? Try these video lessons and learn fast
                well... pretty much the same 4 chords the whole song, didn't bother 
lookin up the chord names, but it sounds right on to me, have fun.

Chords:

--7--7-----(5)-----2--2------3--
--5--5------5------3--3------5--
--5--5------5------4--4------4--
--5--5------5------4--4------5--
--x--x------3------2--2------3--
--x--x------x------x--x------x--

--7--7-----(5)-----2--2------3--
--5--5------5------3--3------5--
--5--5------5------4--4------4--
--5--5------5------4--4------5--
--x--x------3------2--2------3--
--x--x------x------x--x------x--

--7--7-----(5)-----2--2------3--
--5--5------5------3--3------5--
--5--5------5------4--4------4--
--5--5------5------4--4------5--
--x--x------3------2--2------3--
--x--x------x------x--x------x--

--7--7-----(5)-----2--2------3--
--5--5------5------3--3------5--
--5--5------5------4--4------4--
--5--5------5------4--4------5--
--x--x------3------2--2------3--
--x--x------x------x--x------x--
            
Submit corrections

comments powered by Disqus
↑ Back to top | Justin Timberlake Tabs for Take It From Here. Lyrics for acoustic guitar and electric guitar. Tablatures and chords are parodies/interpretations of the original songs. You may use it for private study, scholarship, research or language learning purposes only