» » »

Rock Your Body Tabs (ver.3)

Artists:  A B C D E F G H I J K L M N O P Q R S T U V W X Y Z # 

Rock Your Body Tabs (ver.3)

Justin Timberlake
Rating:
0/5 (0 votes)

Hard to play? Try these video lessons and learn fast.
                Rock Your Body

Trousersnake Tab 


These are the the correct chords. Use a trebly tone. In addition, the guitar part might have a touch of chorus effect on it. 

Play the song to get a feel for the rhythm*

Play fast…
  *1       2          3        4           1   2       3       4    *
e:-8----8--8----8--8--10-10---10-10-10-10|-7---7---7-7-7---7---7-7-|
B:10---10-10---10-10--12-12---12-12-12-12|-8---8---8-8-8---8---8-8-|
G:10---10-10---10-10--12-12---12-12-12-12|-9---9---9-9-9---9---9-9-|
D:---------------------------------------|-------------------------|
A:---------------------------------------|-------------------------|
E:---------------------------------------|-------------------------|


re correction suggesting (via the link below) by danielalexanderried:

B:10-x-x-10-x-x-12-x-x-8
G:10-x-x-10-x-x-12-x-x-9
D:10-x-x-10-x-x-12-x-x-9....

That just translates to my edition above by adding the D-notes on the Bar chord.
ie...

e:--(8)----(10)---------(7)
B:--10------12-----------8
G:--10------12-----------9
D:--10------12-----and---9 I think the top e-string notes are included in the guitar part so I still prefer my version but its up to you...you can mix the two and play the bracjeted notes. But the chord shapes are then a little more tricky. I think the the D-string notes are in the keyboard part.

The verse when Justin sings though can be played with the shortned chord shapes (its a keyboard on the song i think);

G:10-----------12------and--9
D:10-----------12-----------9
A:(8)----------(10)--------(7)  A string notes can be added on preference.
            
Hard to play? Try these video lessons and learn fast. | Correct




comments powered by Disqus
↑ Back to top | Tablatures and chords are parodies/interpretations of the original songs. You may use it for private study, scholarship, research or language learning purposes only