» » »

Justin Timberlake, Like I Love You Tabs (ver.5)

Artists:  A B C D E F G H I J K L M N O P Q R S T U V W X Y Z # 

Like I Love You Tabs (ver.5)

Justin Timberlake Tabs
Rating:
4/5 (21 vote)
Like I Love You lessons Tabs too difficult? Try these video lessons and learn fast
                 *=-=*=-=*=-=*=-=*=-=*=-=*=-=*=-=*=-=*=-=*=-=*=-=*=-=*=-=*=-=*=-=*=-=*=-=*=-=*
                          Like I Love You by Juju Timby
 *=-=*=-=*=-=*=-=*=-=*=-=*=-=*=-=*=-=*=-=*=-=*=-=*=-=*=-=*=-=*=-=*=-=*=-=*=-=*

it to me sooner)

Tuning: Eh... I never change my toonink. Regular... cause I'm lazy.


I have to admit, this is my first tab BUT it's better than the ones already
on here SO NOW WHAT! booyow.


And just so ya know..
/ = strum towards the floor
\ = strum towards your head or to the sky.. however ya hold ur sexy guitar
AND ONLY PLAY THE STRINGS WITH NUMBERS ON THEM!!!
and that's an order.


This is the WHOLE THING THROUGH MOST OF THE SONG! 'Cause Pharell (The guy that
does the guitar and a member of N.E.R.D aka the Neptunes) is lazy (but still
sexy!) and for those who aren't familiar with what finger to put down... I helped
ya out! (look on the right)

e|--/---/-\-/----/---/-\-/----/---/-\-/--------/-/-/-/-/-----|
B|--/---/-\-/----/---/-\-/----/---/-\-/--------/-/-/-/-/-----|
G|--4---4-4-4----4---4-4-4----4---4-4-4--------4-4-5-5-3-----| ring finger
D|--4---4-4-4----4---4-4-4----4---4-4-4--------4-4-5-5-3-----| middle finger
A|--2---2-2-2----2---2-2-2----2---2-2-2--------2-2-3-3-1-----| index finger
E|--/---/-\-/----/---/-\-/----/---/-\-/--------/-/-/-/-/-----|

Repeat as needed.

You can just do a Bm chord with your index finger on the 6th string if it's
easier to upstrum that way, but I find it way easier to switch to the little
bridge (below) with my way of playing it and keeping the right timing.

Play this when Justin's "flying"...kay?

e|--7----5----2------5----7----2------7----5----2------0------2-|
B|--7----5----2------5----7----2------7----5----2------0------2-|
G|--7----5----2------5----7----2------7----5----2------0------2-|
D|--/----/----/------/----/----/------/----/----/------/------/-|
A|--/----/----/------/----/----/------/----/----/------/------/-|
E|--/----/----/------/----/----/------/----/----/------/------/-|

It goes back to the main part during the rap and then right after one of the
guys from Clipse says "Now how heavy is that?", you get back on that flying part.

At the very end, where Justin says he was dreaming about this when he was a
little boy and he never thought it would end up this way... that little "beep,
pretty good on this part but I heard a slight difference. I think this way is
more like the song (I'm not all that great on tabbing non-string instruments of
any kind to guitar but I think this one is dead on).

e|------------12-13-------------12-----|
B|-12---13------------12---13------11--|
G|-------------------------------------|
D|-------------------------------------|
A|-------------------------------------|
E|-------------------------------------|

Errm actually the first 12 on the "b" string sounds cooler as an 11... but the
way i have it up there sounds more... riiight. ya know what I mean.

Whelp... that's it. If you know any cool songs you want me to check out or just
somewhere at the top... mmmkay? And e-mail me too if you know some reeealy fun
songs to play on my acoustic guitar cause most of the songs I get from here are
electric anyway.
            
Submit corrections

comments powered by Disqus
↑ Back to top | Justin Timberlake Tabs for Like I Love You. Lyrics for acoustic guitar and electric guitar. Tablatures and chords are parodies/interpretations of the original songs. You may use it for private study, scholarship, research or language learning purposes only