» » »

I Think She Knows Tabs (ver.2)

Artists:  A B C D E F G H I J K L M N O P Q R S T U V W X Y Z # 

I Think She Knows Tabs (ver.2)

Justin Timberlake
Rating:
3/5 (3 votes)

Hard to play? Try these video lessons and learn fast.
                this is basically the whole entire song..
it plays over and over until it fades out!
hope it sounds the like the song to you, cause
it does to me!!!


e-----------------------------------------------|
G-----------------------------------------------|
B-----------------------------------------------|
D-10-10-10-10---10-10-10-10---8-8-8---6-6-6-6-6-|
A-8--8--8--8----8--8--8--8----6-6-6---4-4-4-4-4-|
E-----------------------------------------------|

e-----------------------------------------------|
G-----------------------------------------------|
B-8-8-8-8---8-8-8-8---10-10-10------------------|
D-6-6-6-6---6-6-6-6---8--8--8---10-10-10-10-10--|
A-------------------------------8--8--8--8--8---|
E-----------------------------------------------|

e-----------------------------------------------|
G-----------------------------------------------|
B-----------------------------------------------|
D-10-10-10-10---10-10-10-10--8-8-8---6-6-6-6-6--|
A-8--8--8--8----8--8--8--8---6-6-6---4-4-4-4-4--|
E-----------------------------------------------|

e-----------------------------------------------|
G-----------------------------------------------|
B-10-8-8-8---8-8-8-8---8-8-8--------------------|
D-6--6-6-6---6-6-6-6---6-6-6---10-10-10-10-10---|
A------------------------------8--8--8--8--8----|
E-----------------------------------------------|

FIN!
            
Hard to play? Try these video lessons and learn fast. | Correct




comments powered by Disqus
↑ Back to top | Tablatures and chords are parodies/interpretations of the original songs. You may use it for private study, scholarship, research or language learning purposes only