» » »

Cry Me A River Tabs (ver.2)

Artists:  A B C D E F G H I J K L M N O P Q R S T U V W X Y Z # 

Cry Me A River Tabs (ver.2)

Justin Timberlake
Rating:
3/5 (6 votes)

Hard to play? Try these video lessons and learn fast.
                Cry Me A River - Justin Timberlake

Tabs edited by Vicetinou


In my version, I'm with capo on 4th fret with a half-step down tuned guitar..
But you can put the capo wherever it fits for your voice..

***********************************Intro************************************

TEMPO|1-------2-------3-------4-------|1-------2-------3-------4-------|****
*****|********************************|********************************|****
G****|--------0---------------0-------|--------1---------------0-------|****
C****|------1-1-------------0-0-------|--------1-------------0-0-------|****
F****|----2---2-----------1---1-------|------2-2-----------1---1-------|****
A#***|--2-----2---------0-----0-------|----3---3---------0-----0-------|****
D****|0-------0-------2-------2-------|--3-----3-------2-------2-------|****
G****|--------------------------------|1-------1-----------------------|****

TEMPO|1-------2-------3-------4-------|1-------2-------3-------4-------|****
*****|********************************|********************************|****
G****|--------0---------------0-------|--------1---------------0-------|****
C****|------1-1-------------0-0-------|--------1-------------0---0-----|****
F****|----2---2-----------1---1-------|------2-2-----------1-------1---|****
A#***|--2-----2---------0-----0-------|----3---3---------0-------------|****
D****|0-------0-------2-------2-------|--3-----3-------2---------------|****
G****|--------------------------------|1-------1-----------------------|****

***********************************Verse************************************
Here are the chords.. play as you feel it..

1st riff: (4times to play)
TEMPO|1-------2-------3-------4-------|1-------2-------3-------4-------|****
*****|********************************|********************************|****
g****|0---------------0---------------|1---------------0---------------|****
C****|1---------------0---------------|1---------------3---------------|****
F****|2---------------1---------------|2---------------2---------------|****
A#***|2---------------0---------------|3---------------0---------------|****
D****|0---------------2---------------|3-------------------------------|****
G****|----------------0---------------|1-------------------------------|****

2nd riff:
TEMPO|1-------2-------3-------4-------|1-------2-------3-------4-------|****
*****|********************************|********************************|****
G****|--------0---------------0-------|--------1---------------0-------|****
C****|------1-1-------------0-0-------|--------1-----------3---3-------|****
F****|----2---2-----------1---1-------|------2-2---------2-----2-------|****
A#***|--2-----2---------0-----0-------|----3---3-------0-------0-------|****
D****|0-------0-------2-------2-------|--3-----3-----------------------|****
G****|--------------------------------|1-------1-----------------------|****

TEMPO|1-------2-------3-------4-------|1-------2-------3-------4-------|****
*****|********************************|********************************|****
G****|--------0---------------0-------|--------1-------0-------3-------|****
C****|------1-1-------------0-0-------|--------1-------3-------3-------|****
F****|----2---2-----------1---1-------|------2-2-------2-------0-------|****
A#***|--2-----2---------0-----0-------|----3---3-------0-------0-------|****
D****|0-------0-------2-------2-------|--3-----3---------------2-------|****
G****|--------------------------------|1-------1---------------3-------|****

*********************************Pre-Chorus*********************************
(4 times)
TEMPO|1-------2-------3-------4-------|1-------2-------3-------4-------|****
*****|********************************|********************************|****
g****|0---------------0---------------|1---------------0---------------|****
C****|1---------------0---------------|1---------------3---------------|****
F****|2---------------1---------------|2---------------2---------------|****
A#***|2---------------0---------------|3---------------0---------------|****
D****|0---------------2---------------|3-------------------------------|****
G****|----------------0---------------|1-------------------------------|****

***********************************Chorus***********************************
(3 times)
TEMPO|1-------2-------3-------4-------|1-------2-------3-------4-------|****
*****|********************************|********************************|****
g****|0---------------0---------------|1---------------0---------------|****
C****|1---------------0---------------|1---------------3---------------|****
F****|2---------------1---------------|2---------------2---------------|****
A#***|2---------------0---------------|3---------------0---------------|****
D****|0---------------2---------------|3-------------------------------|****
G****|----------------0---------------|1-------------------------------|****
(Last time)
TEMPO|1-------2-------3-------4-------|1-------2-------3-------4-------|****
*****|********************************|********************************|****
g****|0---------------0---------------|1---------------0-------3-------|****
C****|1---------------0---------------|1---------------3-------3-------|****
F****|2---------------1---------------|2---------------2-------0-------|****
A#***|2---------------0---------------|3---------------0-------0-------|****
D****|0---------------2---------------|3-----------------------2-------|****
G****|----------------0---------------|1-----------------------3-------|****

Thanks for all your comment!

Vicetinou
            
Hard to play? Try these video lessons and learn fast. | Correct




comments powered by Disqus
↑ Back to top | Tablatures and chords are parodies/interpretations of the original songs. You may use it for private study, scholarship, research or language learning purposes only