» » »

Justin Sane, Thanks For The Letters Tabs (ver.1)

Artists:  A B C D E F G H I J K L M N O P Q R S T U V W X Y Z # 

Thanks For The Letters Tabs (ver.1)

Justin Sane Tabs
Rating:
0/5 (0 votes)
Hard to play? Try these video lessons and learn fast.
                Tuning- DGCFAD
Guitarist- Justin Sane

----------------------------------------------
----------------------------------------------
----------------------------------------------
0-0--0-0--0-----------------------------------
5-11-9-14-12----------------------------------
7-9-10-15-14----------------------------------


------------------------------------------
------------------------------------------
------------------------------------------
0-0--0-0----------------------------------
5-11-9-11---------------------------------
7-9-10-9----------------------------------

the little riff is...


-------------
-------------
999976-------
-------------
-------------
-------------

but its played during this part..

em,d,c

(the c is played...)
------------------
-1-3333-1-0-------
-0----------------
-2----------------
-3----------------
------------------

the open chords should go, Em, d, c, Em, D, G, G

there are a lot of little notes, nothing huge.
            

comments powered by Disqus
↑ Back to top | Justin Sane Tabs for Thanks For The Letters. Lyrics for acoustic guitar and electric guitar. Tablatures and chords are parodies/interpretations of the original songs. You may use it for private study, scholarship, research or language learning purposes only