» » »

Never Want To Leave Home Tabs (ver.1)

Artists:  A B C D E F G H I J K L M N O P Q R S T U V W X Y Z # 

Never Want To Leave Home Tabs (ver.1)

Justin Sane
Rating:
0/5 (0 votes)

Hard to play? Try these video lessons and learn fast.
                -------------------------------------------------------------------------------
-------------------------------------------------------------------------------


M - palm mute
* - not exact # of strums...figure out the # yourself...its not hard

e|---------------------------------------------------------|
B|---------------------------------------------------------|
G|--3*----8*----6-6-6-6--6--6--6-6-6--6-6-6----------------|
D|--6*----8*----6-6-6-6--6--6--6-6-6--6-6-6---2X-----------|
A|--6*----6*----4-4-4-4--0--3--4-4-4--3-3-3----------------|
E|--4*-----------------------------------------------------|

  0:12
e|------------------------M-------M-----M-------M--------M-|
B|-------------------M-M--6--M-M--6--M--6--M-M--6--M-M---6-|
G|-------------8*----6-6-----6-6-----6-----6-6-----6-6-----|
D|--6-6--6*----8*----6-6-----6-6-----6-----6-6-----6-6-----|
A|--6-6--6*----6*----4-4-----4-4-----4-----4-4-----3-3-----|
E|--4-4--4*------------------------------------------------|

  0:18
e|---------------------------------------------------------|
B|---------------------------------------------------------|
G|--------8*----6-6-6-6--6--6--6-6-6--6-6-6----------------|
D|--6*----8*----6-6-6-6--6--6--6-6-6--6-6-6----------------|
A|--6*----6*----4-4-4-4--0--3--4-4-4--3-3-3----------------|
E|--4*-----------------------------------------------------|

  0:24
e|---------------------------------------------------------|
B|-------M-----------M-------------------------------------|
G|--8-8--8*----M*----6*--------6-6-------------------------|
D|--8-8--8*----3*----6*---6-6--6-6--6---3X-----------------|
A|--6-6--6*----3*----4*---6-6--4-4--6----------------------|
E|-------------1*---------4-4-------4----------------------|

  0:41
e|---------------------------------------------------------|
B|-----M---------------------------------------------------|
G|--8--8*-----------6-6-----------6------------------------|
D|--8--8*----3-3----6-6----6-6-6--6--6-6-6--5-5-5----------|
A|--6--6*----3-3----4-4----6-6-6--4--6-6-6--5-5-5----------|
E|-----------1-1-----------4-4-4-----4-4-4--3-3-3----------|

  0:47
e|------------------------|--------------------------------|
B|------------------------|--------------------------------|
G|--------6*----------8*--|--------6*----------10/--8*-----|
D|--3*----6*----6*----8*--|--3*----6*----6*----10/--8*-----|
A|--3*----4*----6*----6*--|--3*----4*----6*-----8/--6*-----|
E|--1*----------4*--------|--1*----------4*----------------|

  0:58
e|-------------------------|-------------------------------|
B|-------------------------|-------------------------------|
G|--10*----6*----------8*--|--10*----6*--------------------|
D|--10*----6*----6*----8*--|--10*----6*----6*----8*--------|
A|---8*----4*----6*----6*--|---8*----4*----6*----8*--------|
E|---------------4*--------|---------------4*----6*--------|

  1:04
e|-------------------------|---------------0---------------|
B|-------------------------|---------------0---------------|
G|--10*----6*----------8*--|--10*----6*----0---------------|
D|--10*----6*----6*----8*--|--10*----6*----6---------------|
A|---8*----4*----6*----6*--|---8*----4*----6---------------|
E|---------------4*--------|---------------4---------------|

This is Justin Sane's solo project aside from Anti-Flag.
===============================================================================
            
Hard to play? Try these video lessons and learn fast. | Correct




comments powered by Disqus
↑ Back to top | Tablatures and chords are parodies/interpretations of the original songs. You may use it for private study, scholarship, research or language learning purposes only