» » »

Cassette Deck Trip Grand Canyon Tabs (ver.1)

Artists:  A B C D E F G H I J K L M N O P Q R S T U V W X Y Z # 

Cassette Deck Trip Grand Canyon Tabs (ver.1)

Justin Sane
Rating:
0/5 (0 votes)

Hard to play? Try these video lessons and learn fast.
                Listen to the song for the correct rhythms... umm it's tuned a whole step down.


Intro:
D |--0---0---0---0---3-------0---0---0---0---3---1---|
A |--1---1---1---1---0-------1---1---1---1---0---1---|
F |--2---2---0---0---0-------2---2---0---0---0---2---|
C |--2---0---2---2---0-------2---0---2---2---0---3---|
G |--0---2---3---2---2-------0---2---3---2---2---0---|
D |------------------3-----------------------3-------|

Verse:
D |--0---0---0---0---3/-------0-------0-------3-------1---|
A |--1---1---1---1---0/-------1-------1-------0-------1---|
F |--2---2---0---0---0/-------2-------0-------0-------2---|
C |--2---0---2---2---0/-------2-------2-------0-------3---|
G |--0---2---3---2---2/-------0-------3-------2-------0---|
D |------------------3/-----------------------3-----------|

D |--0---0---0---0---3---1-------0-------0-------3-------1---|
A |--1---1---1---1---0---1-------1-------1-------0-------1---|
F |--2---2---0---0---0---2-------2-------0-------0-------2---|
C |--2---0---2---2---0---3-------2-------2-------0-------3---|
G |--0---2---3---2---2---0-------0-------3-------2-------0---|
D |------------------3---------------------------3-----------|

Chorus:
D |--0-------0-------3-------1-------0-------0-------1/---|
A |--1-------1-------0-------1-------1-------1-------1/---|
F |--0-------2-------0-------2-------0-------2-------2/---|
C |--2-------2-------0-------3-------2-------2-------3/---|
G |--3-------0-------2-------0-------3-------0-------0/---|
D |------------------3--------------------------------/---|

And at the end for the chorus he kind of just plucks the chords string by string and I
really bother to tab out the exact pattern but this sounds pretty good to me while I 
it.


D |----------0---------------0---------------3---------------1---------|
A |--------1---1-----------1---1---------------0---------1-----1-------|
F |------0-------0-------2-------2---------0-----0-----2---2-----2-----|
C |----2-----------2---2-----------2-----0---------0-3-------------3---|
G |--3---------------0-----------------2-------------------------------|
D |----------------------------------3---------------------------------|

Order is
Intro
Verse
Chorus
Verse
Chorus
Verse
outro


Lyrics:
I heard the cry out as the car came to a stop
A mix of panic and relief
On the edge of the Grand Canyon
Ten seconds later still sitting frozen
we burst out into f**king killer laughter
I couldn't catch my breath forever

And then it hit me
"Hey can you play that tape back"
I... can't believe that it was rollin'
Listen to the sound of our commentary
Then wicked yelling out
Screeching wheels, silence, howls...

That three week road trip was a road trip and a half - maybe more!
Captured on one roll of film, out of focus pictures bore,
Every national monument - every tourist trap
Across the 48 states that fell within our path

And then it hit me
"Hey can you play that tape back"
I... can't believe that it was rollin'
Listen to the sound or your commentary - laughing
"Oh man please shut up, I've had way more than enough."

By my count it all ended - Seventeen cassette tapes later!
Stupid, brain dead obersavtions - yes we were much too clever
To know that we were having the time of our lives
Now years later listening to those cassettes drives me to cry...

And then it hit me
"Hey can you play that tape back"
I...can't believe that it was rollin'
Listen to the sounds of our commentary
Recording our lives ourselves, I'm glad I have them now...

Philip M. Dragan
            
Hard to play? Try these video lessons and learn fast. | Correct




comments powered by Disqus
↑ Back to top | Tablatures and chords are parodies/interpretations of the original songs. You may use it for private study, scholarship, research or language learning purposes only